  0
SECTION
  2
HEADER
  9
$ACADVER
  1
AC1027
  9
$ACADMAINTVER
 70
    55
  9
$DWGCODEPAGE
  3
ANSI_1252
  9
$LASTSAVEDBY
  1
danica
  9
$REQUIREDVERSIONS
160
                 0
  9
$INSBASE
 10
0.0
 20
0.0
 30
0.0
  9
$EXTMIN
 10
-0.0078292558940447
 20
-0.7017678336037463
 30
-0.0000000000022887
  9
$EXTMAX
 10
18.03137979448339
 20
33.72695870680211
 30
0.0000000000000001
  9
$LIMMIN
 10
0.0
 20
0.0
  9
$LIMMAX
 10
12.0
 20
9.0
  9
$ORTHOMODE
 70
     0
  9
$REGENMODE
 70
     1
  9
$FILLMODE
 70
     1
  9
$QTEXTMODE
 70
     0
  9
$MIRRTEXT
 70
     0
  9
$LTSCALE
 40
1.0
  9
$ATTMODE
 70
     1
  9
$TEXTSIZE
 40
0.2
  9
$TRACEWID
 40
0.05
  9
$TEXTSTYLE
  7
Standard
  9
$CLAYER
  8
0
  9
$CELTYPE
  6
ByLayer
  9
$CECOLOR
 62
   256
  9
$CELTSCALE
 40
1.0
  9
$DISPSILH
 70
     0
  9
$DIMSCALE
 40
1.0
  9
$DIMASZ
 40
0.18
  9
$DIMEXO
 40
0.0625
  9
$DIMDLI
 40
0.38
  9
$DIMRND
 40
0.0
  9
$DIMDLE
 40
0.0
  9
$DIMEXE
 40
0.18
  9
$DIMTP
 40
0.0
  9
$DIMTM
 40
0.0
  9
$DIMTXT
 40
0.18
  9
$DIMCEN
 40
0.09
  9
$DIMTSZ
 40
0.0
  9
$DIMTOL
 70
     0
  9
$DIMLIM
 70
     0
  9
$DIMTIH
 70
     1
  9
$DIMTOH
 70
     1
  9
$DIMSE1
 70
     0
  9
$DIMSE2
 70
     0
  9
$DIMTAD
 70
     0
  9
$DIMZIN
 70
     0
  9
$DIMBLK
  1

  9
$DIMASO
 70
     1
  9
$DIMSHO
 70
     1
  9
$DIMPOST
  1

  9
$DIMAPOST
  1

  9
$DIMALT
 70
     0
  9
$DIMALTD
 70
     2
  9
$DIMALTF
 40
25.4
  9
$DIMLFAC
 40
1.0
  9
$DIMTOFL
 70
     0
  9
$DIMTVP
 40
0.0
  9
$DIMTIX
 70
     0
  9
$DIMSOXD
 70
     0
  9
$DIMSAH
 70
     0
  9
$DIMBLK1
  1

  9
$DIMBLK2
  1

  9
$DIMSTYLE
  2
Standard
  9
$DIMCLRD
 70
     0
  9
$DIMCLRE
 70
     0
  9
$DIMCLRT
 70
     0
  9
$DIMTFAC
 40
1.0
  9
$DIMGAP
 40
0.09
  9
$DIMJUST
 70
     0
  9
$DIMSD1
 70
     0
  9
$DIMSD2
 70
     0
  9
$DIMTOLJ
 70
     1
  9
$DIMTZIN
 70
     0
  9
$DIMALTZ
 70
     0
  9
$DIMALTTZ
 70
     0
  9
$DIMUPT
 70
     0
  9
$DIMDEC
 70
     4
  9
$DIMTDEC
 70
     4
  9
$DIMALTU
 70
     4
  9
$DIMALTTD
 70
     2
  9
$DIMTXSTY
  7
Standard
  9
$DIMAUNIT
 70
     0
  9
$DIMADEC
 70
     0
  9
$DIMALTRND
 40
0.0
  9
$DIMAZIN
 70
     0
  9
$DIMDSEP
 70
    46
  9
$DIMATFIT
 70
     3
  9
$DIMFRAC
 70
     0
  9
$DIMLDRBLK
  1

  9
$DIMLUNIT
 70
     4
  9
$DIMLWD
 70
    -2
  9
$DIMLWE
 70
    -2
  9
$DIMTMOVE
 70
     0
  9
$DIMFXL
 40
1.0
  9
$DIMFXLON
 70
     0
  9
$DIMJOGANG
 40
0.7853981633974483
  9
$DIMTFILL
 70
     0
  9
$DIMTFILLCLR
 70
     0
  9
$DIMARCSYM
 70
     0
  9
$DIMLTYPE
  6

  9
$DIMLTEX1
  6

  9
$DIMLTEX2
  6

  9
$DIMTXTDIRECTION
 70
     0
  9
$LUNITS
 70
     4
  9
$LUPREC
 70
     4
  9
$SKETCHINC
 40
0.1
  9
$FILLETRAD
 40
0.0
  9
$AUNITS
 70
     0
  9
$AUPREC
 70
     0
  9
$MENU
  1
.
  9
$ELEVATION
 40
0.0
  9
$PELEVATION
 40
0.0
  9
$THICKNESS
 40
0.0
  9
$LIMCHECK
 70
     0
  9
$CHAMFERA
 40
0.0
  9
$CHAMFERB
 40
0.0
  9
$CHAMFERC
 40
0.0
  9
$CHAMFERD
 40
0.0
  9
$SKPOLY
 70
     0
  9
$TDCREATE
 40
2458152.655200544
  9
$TDUCREATE
 40
2458152.863533877
  9
$TDUPDATE
 40
2458152.662834109
  9
$TDUUPDATE
 40
2458152.871167442
  9
$TDINDWG
 40
0.0064871412
  9
$TDUSRTIMER
 40
0.0064871412
  9
$USRTIMER
 70
     1
  9
$ANGBASE
 50
0.0
  9
$ANGDIR
 70
     0
  9
$PDMODE
 70
     0
  9
$PDSIZE
 40
0.0
  9
$PLINEWID
 40
0.0
  9
$SPLFRAME
 70
     0
  9
$SPLINETYPE
 70
     6
  9
$SPLINESEGS
 70
     8
  9
$HANDSEED
  5
20A
  9
$SURFTAB1
 70
     6
  9
$SURFTAB2
 70
     6
  9
$SURFTYPE
 70
     6
  9
$SURFU
 70
     6
  9
$SURFV
 70
     6
  9
$UCSBASE
  2

  9
$UCSNAME
  2

  9
$UCSORG
 10
0.0
 20
0.0
 30
0.0
  9
$UCSXDIR
 10
1.0
 20
0.0
 30
0.0
  9
$UCSYDIR
 10
0.0
 20
1.0
 30
0.0
  9
$UCSORTHOREF
  2

  9
$UCSORTHOVIEW
 70
     0
  9
$UCSORGTOP
 10
0.0
 20
0.0
 30
0.0
  9
$UCSORGBOTTOM
 10
0.0
 20
0.0
 30
0.0
  9
$UCSORGLEFT
 10
0.0
 20
0.0
 30
0.0
  9
$UCSORGRIGHT
 10
0.0
 20
0.0
 30
0.0
  9
$UCSORGFRONT
 10
0.0
 20
0.0
 30
0.0
  9
$UCSORGBACK
 10
0.0
 20
0.0
 30
0.0
  9
$PUCSBASE
  2

  9
$PUCSNAME
  2

  9
$PUCSORG
 10
0.0
 20
0.0
 30
0.0
  9
$PUCSXDIR
 10
1.0
 20
0.0
 30
0.0
  9
$PUCSYDIR
 10
0.0
 20
1.0
 30
0.0
  9
$PUCSORTHOREF
  2

  9
$PUCSORTHOVIEW
 70
     0
  9
$PUCSORGTOP
 10
0.0
 20
0.0
 30
0.0
  9
$PUCSORGBOTTOM
 10
0.0
 20
0.0
 30
0.0
  9
$PUCSORGLEFT
 10
0.0
 20
0.0
 30
0.0
  9
$PUCSORGRIGHT
 10
0.0
 20
0.0
 30
0.0
  9
$PUCSORGFRONT
 10
0.0
 20
0.0
 30
0.0
  9
$PUCSORGBACK
 10
0.0
 20
0.0
 30
0.0
  9
$USERI1
 70
     0
  9
$USERI2
 70
     0
  9
$USERI3
 70
     0
  9
$USERI4
 70
     0
  9
$USERI5
 70
     0
  9
$USERR1
 40
0.0
  9
$USERR2
 40
0.0
  9
$USERR3
 40
0.0
  9
$USERR4
 40
0.0
  9
$USERR5
 40
0.0
  9
$WORLDVIEW
 70
     1
  9
$SHADEDGE
 70
     3
  9
$SHADEDIF
 70
    70
  9
$TILEMODE
 70
     1
  9
$MAXACTVP
 70
    64
  9
$PINSBASE
 10
0.0
 20
0.0
 30
0.0
  9
$PLIMCHECK
 70
     0
  9
$PEXTMIN
 10
1.000000000000000E+20
 20
1.000000000000000E+20
 30
1.000000000000000E+20
  9
$PEXTMAX
 10
-1.000000000000000E+20
 20
-1.000000000000000E+20
 30
-1.000000000000000E+20
  9
$PLIMMIN
 10
0.0
 20
0.0
  9
$PLIMMAX
 10
12.0
 20
9.0
  9
$UNITMODE
 70
     0
  9
$VISRETAIN
 70
     1
  9
$PLINEGEN
 70
     0
  9
$PSLTSCALE
 70
     1
  9
$TREEDEPTH
 70
  3020
  9
$CMLSTYLE
  2
Standard
  9
$CMLJUST
 70
     0
  9
$CMLSCALE
 40
1.0
  9
$PROXYGRAPHICS
 70
     1
  9
$MEASUREMENT
 70
     0
  9
$CELWEIGHT
370
    -1
  9
$ENDCAPS
280
     0
  9
$JOINSTYLE
280
     0
  9
$LWDISPLAY
290
     0
  9
$INSUNITS
 70
     1
  9
$HYPERLINKBASE
  1

  9
$STYLESHEET
  1

  9
$XEDIT
290
     1
  9
$CEPSNTYPE
380
     0
  9
$PSTYLEMODE
290
     1
  9
$FINGERPRINTGUID
  2
{68C7AB32-55E5-445E-923F-F9118D14C7A5}
  9
$VERSIONGUID
  2
{BAECD6CD-3543-4EDB-A1CF-3030DAED11FD}
  9
$EXTNAMES
290
     1
  9
$PSVPSCALE
 40
0.0
  9
$OLESTARTUP
290
     0
  9
$SORTENTS
280
   127
  9
$INDEXCTL
280
     0
  9
$HIDETEXT
280
     1
  9
$XCLIPFRAME
280
     2
  9
$HALOGAP
280
     0
  9
$OBSCOLOR
 70
   257
  9
$OBSLTYPE
280
     0
  9
$INTERSECTIONDISPLAY
280
     0
  9
$INTERSECTIONCOLOR
 70
   257
  9
$DIMASSOC
280
     2
  9
$PROJECTNAME
  1

  9
$CAMERADISPLAY
290
     0
  9
$LENSLENGTH
 40
50.0
  9
$CAMERAHEIGHT
 40
0.0
  9
$STEPSPERSEC
 40
2.0
  9
$STEPSIZE
 40
6.0
  9
$3DDWFPREC
 40
2.0
  9
$PSOLWIDTH
 40
0.25
  9
$PSOLHEIGHT
 40
4.0
  9
$LOFTANG1
 40
1.570796326794896
  9
$LOFTANG2
 40
1.570796326794896
  9
$LOFTMAG1
 40
0.0
  9
$LOFTMAG2
 40
0.0
  9
$LOFTPARAM
 70
     7
  9
$LOFTNORMALS
280
     1
  9
$LATITUDE
 40
0.0
  9
$LONGITUDE
 40
0.0
  9
$NORTHDIRECTION
 40
0.0
  9
$TIMEZONE
 70
     0
  9
$LIGHTGLYPHDISPLAY
280
     1
  9
$TILEMODELIGHTSYNCH
280
     1
  9
$CMATERIAL
347
11
  9
$SOLIDHIST
280
     0
  9
$SHOWHIST
280
     1
  9
$DWFFRAME
280
     2
  9
$DGNFRAME
280
     0
  9
$REALWORLDSCALE
290
     1
  9
$INTERFERECOLOR
 62
     1
  9
$INTERFEREOBJVS
345
33
  9
$INTERFEREVPVS
346
30
  9
$CSHADOW
280
     0
  9
$SHADOWPLANELOCATION
 40
0.0
  0
ENDSEC
  0
SECTION
  2
CLASSES
  0
CLASS
  1
ACDBDICTIONARYWDFLT
  2
AcDbDictionaryWithDefault
  3
ObjectDBX Classes
 90
        0
 91
        1
280
     0
281
     0
  0
CLASS
  1
MATERIAL
  2
AcDbMaterial
  3
ObjectDBX Classes
 90
     1153
 91
        3
280
     0
281
     0
  0
CLASS
  1
VISUALSTYLE
  2
AcDbVisualStyle
  3
ObjectDBX Classes
 90
     4095
 91
       24
280
     0
281
     0
  0
CLASS
  1
SCALE
  2
AcDbScale
  3
ObjectDBX Classes
 90
     1153
 91
       17
280
     0
281
     0
  0
CLASS
  1
TABLESTYLE
  2
AcDbTableStyle
  3
ObjectDBX Classes
 90
     4095
 91
        1
280
     0
281
     0
  0
CLASS
  1
MLEADERSTYLE
  2
AcDbMLeaderStyle
  3
ACDB_MLEADERSTYLE_CLASS
 90
     4095
 91
        1
280
     0
281
     0
  0
CLASS
  1
ACDBSECTIONVIEWSTYLE
  2
AcDbSectionViewStyle
  3
ObjectDBX Classes
 90
     1025
 91
        1
280
     0
281
     0
  0
CLASS
  1
ACDBDETAILVIEWSTYLE
  2
AcDbDetailViewStyle
  3
ObjectDBX Classes
 90
     1025
 91
        1
280
     0
281
     0
  0
CLASS
  1
RASTERVARIABLES
  2
AcDbRasterVariables
  3
ISM
 90
        0
 91
        1
280
     0
281
     0
  0
CLASS
  1
DICTIONARYVAR
  2
AcDbDictionaryVar
  3
ObjectDBX Classes
 90
        0
 91
        5
280
     0
281
     0
  0
CLASS
  1
SORTENTSTABLE
  2
AcDbSortentsTable
  3
ObjectDBX Classes
 90
        0
 91
        3
280
     0
281
     0
  0
CLASS
  1
CELLSTYLEMAP
  2
AcDbCellStyleMap
  3
ObjectDBX Classes
 90
     1152
 91
        1
280
     0
281
     0
  0
ENDSEC
  0
SECTION
  2
TABLES
  0
TABLE
  2
VPORT
  5
8
330
0
100
AcDbSymbolTable
 70
     1
  0
VPORT
  5
57
330
8
100
AcDbSymbolTableRecord
100
AcDbViewportTableRecord
  2
*Active
 70
     0
 10
0.0
 20
0.0
 11
1.0
 21
1.0
 12
9.011775269294673
 22
16.51259543659918
 13
0.0
 23
0.0
 14
1.0
 24
1.0
 15
0.0
 25
0.0
 16
0.0
 26
0.0
 36
1.0
 17
0.0
 27
0.0
 37
0.0
 40
34.69322379935904
 41
2.455128205128205
 42
50.0
 43
0.0
 44
0.0
 50
0.0
 51
0.0
 71
     0
 72
  1000
 73
     1
 74
     1
 75
     0
 76
     0
 77
     0
 78
     0
281
     0
 65
     1
110
0.0
120
0.0
130
0.0
111
1.0
121
0.0
131
0.0
112
0.0
122
1.0
132
0.0
 79
     0
146
0.0
348
2F
 60
     3
 61
     5
292
     1
282
     1
141
0.0
142
0.0
 63
   250
421
  3355443
1001
ACAD_NAV_VCDISPLAY
1070
     3
  0
ENDTAB
  0
TABLE
  2
LTYPE
  5
5
330
0
100
AcDbSymbolTable
 70
     1
  0
LTYPE
  5
5B
330
5
100
AcDbSymbolTableRecord
100
AcDbLinetypeTableRecord
  2
ByBlock
 70
     0
  3

 72
    65
 73
     0
 40
0.0
  0
LTYPE
  5
5C
330
5
100
AcDbSymbolTableRecord
100
AcDbLinetypeTableRecord
  2
ByLayer
 70
     0
  3

 72
    65
 73
     0
 40
0.0
  0
LTYPE
  5
5D
330
5
100
AcDbSymbolTableRecord
100
AcDbLinetypeTableRecord
  2
Continuous
 70
     0
  3
Solid line
 72
    65
 73
     0
 40
0.0
  0
ENDTAB
  0
TABLE
  2
LAYER
  5
2
330
0
100
AcDbSymbolTable
 70
     2
  0
LAYER
  5
54
330
2
100
AcDbSymbolTableRecord
100
AcDbLayerTableRecord
  2
0
 70
     0
 62
     7
  6
Continuous
370
    -3
390
F
347
21
348
0
  0
LAYER
  5
8A
330
2
100
AcDbSymbolTableRecord
100
AcDbLayerTableRecord
  2
4931.380
 70
     0
 62
     7
  6
Continuous
370
     9
390
F
347
21
348
0
  0
ENDTAB
  0
TABLE
  2
STYLE
  5
3
330
0
100
AcDbSymbolTable
 70
     2
  0
STYLE
  5
55
330
3
100
AcDbSymbolTableRecord
100
AcDbTextStyleTableRecord
  2
Standard
 70
     0
 40
0.0
 41
1.0
 50
0.0
 71
     0
 42
0.2
  3
txt
  4

  0
ENDTAB
  0
TABLE
  2
VIEW
  5
6
330
0
100
AcDbSymbolTable
 70
     0
  0
ENDTAB
  0
TABLE
  2
UCS
  5
7
330
0
100
AcDbSymbolTable
 70
     0
  0
ENDTAB
  0
TABLE
  2
APPID
  5
9
330
0
100
AcDbSymbolTable
 70
     6
  0
APPID
  5
56
330
9
100
AcDbSymbolTableRecord
100
AcDbRegAppTableRecord
  2
ACAD
 70
     0
  0
APPID
  5
5E
330
9
100
AcDbSymbolTableRecord
100
AcDbRegAppTableRecord
  2
AcadAnnotative
 70
     0
  0
APPID
  5
78
330
9
100
AcDbSymbolTableRecord
100
AcDbRegAppTableRecord
  2
REVIT
 70
     0
  0
APPID
  5
E3
330
9
100
AcDbSymbolTableRecord
100
AcDbRegAppTableRecord
  2
ACAD_EXEMPT_FROM_CAD_STANDARDS
 70
     0
  0
APPID
  5
E5
330
9
100
AcDbSymbolTableRecord
100
AcDbRegAppTableRecord
  2
AEC_XDATA_BOUND_SPACE
 70
     0
  0
APPID
  5
1B2
330
9
100
AcDbSymbolTableRecord
100
AcDbRegAppTableRecord
  2
ACAD_NAV_VCDISPLAY
 70
     0
  0
ENDTAB
  0
TABLE
  2
DIMSTYLE
  5
A
330
0
100
AcDbSymbolTable
 70
     3
100
AcDbDimStyleTable
 71
     0
  0
DIMSTYLE
105
58
330
A
100
AcDbSymbolTableRecord
100
AcDbDimStyleTableRecord
  2
Standard
 70
     0
340
55
  0
ENDTAB
  0
TABLE
  2
BLOCK_RECORD
  5
1
330
0
100
AcDbSymbolTable
 70
     7
  0
BLOCK_RECORD
  5
70
102
{ACAD_XDICTIONARY
360
D2
102
}
330
1
100
AcDbSymbolTableRecord
100
AcDbBlockTableRecord
  2
*Model_Space
340
73
 70
     0
280
     1
281
     0
  0
BLOCK_RECORD
  5
6C
330
1
100
AcDbSymbolTableRecord
100
AcDbBlockTableRecord
  2
*Paper_Space
340
6F
 70
     0
280
     1
281
     0
  0
BLOCK_RECORD
  5
74
330
1
100
AcDbSymbolTableRecord
100
AcDbBlockTableRecord
  2
*Paper_Space0
340
77
 70
     0
280
     1
281
     0
  0
BLOCK_RECORD
  5
12D
330
1
100
AcDbSymbolTableRecord
100
AcDbBlockTableRecord
  2
AMSTD_Beale_4931.380_Side View
340
0
310
2800000020000000200000000100080000000000000400000000000000000000000000000000000000000000000080000080000000808000800000008000800080800000C0C0C000C0DCC000F0CAA6000020400000206000002080000020A0000020C0000020E00000400000004020000040400000406000004080000040A0
310
000040C0000040E00000600000006020000060400000606000006080000060A0000060C0000060E00000800000008020000080400000806000008080000080A0000080C0000080E00000A0000000A0200000A0400000A0600000A0800000A0A00000A0C00000A0E00000C0000000C0200000C0400000C0600000C0800000C0
310
A00000C0C00000C0E00000E0000000E0200000E0400000E0600000E0800000E0A00000E0C00000E0E00040000000400020004000400040006000400080004000A0004000C0004000E00040200000402020004020400040206000402080004020A0004020C0004020E000404000004040200040404000404060004040800040
310
40A0004040C0004040E00040600000406020004060400040606000406080004060A0004060C0004060E00040800000408020004080400040806000408080004080A0004080C0004080E00040A0000040A0200040A0400040A0600040A0800040A0A00040A0C00040A0E00040C0000040C0200040C0400040C0600040C08000
310
40C0A00040C0C00040C0E00040E0000040E0200040E0400040E0600040E0800040E0A00040E0C00040E0E00080000000800020008000400080006000800080008000A0008000C0008000E00080200000802020008020400080206000802080008020A0008020C0008020E00080400000804020008040400080406000804080
310
008040A0008040C0008040E00080600000806020008060400080606000806080008060A0008060C0008060E00080800000808020008080400080806000808080008080A0008080C0008080E00080A0000080A0200080A0400080A0600080A0800080A0A00080A0C00080A0E00080C0000080C0200080C0400080C0600080C0
310
800080C0A00080C0C00080C0E00080E0000080E0200080E0400080E0600080E0800080E0A00080E0C00080E0E000C0000000C0002000C0004000C0006000C0008000C000A000C000C000C000E000C0200000C0202000C0204000C0206000C0208000C020A000C020C000C020E000C0400000C0402000C0404000C0406000C0
310
408000C040A000C040C000C040E000C0600000C0602000C0604000C0606000C0608000C060A000C060C000C060E000C0800000C0802000C0804000C0806000C0808000C080A000C080C000C080E000C0A00000C0A02000C0A04000C0A06000C0A08000C0A0A000C0A0C000C0A0E000C0C00000C0C02000C0C04000C0C06000
310
C0C08000C0C0A000F0FBFF00A4A0A000808080000000FF0000FF000000FFFF00FF000000FF00FF00FFFF0000FFFFFF00494949494949494949494949494949494949494949494949494949494949494949494949494949FDFDFDFDFD494949494949494949494949494949494949494949494949494949FDFDFDFDFD494949
310
494949494949494949494949494949494949494949494949FD49FD49FD494949494949494949494949494949494949494949494949494949FD49FD49FD494949494949494949494949494949494949494949494949494949FD49FD49FD494949494949494949494949494949494949494949494949494949FD49FD49FD4949
310
49494949494949494949494949494949494949494949494949FD49FD49FD494949494949494949494949494949494949494949494949494949FD49FD49FD494949494949494949494949494949494949494949494949494949FD49FD49FD494949494949494949494949494949494949494949494949494949FD49FD49FD49
310
4949494949494949494949494949494949494949494949494949FD49FD49FD494949494949494949494949494949494949494949494949494949FDFDFD49FD49494949494949494949494949494949494949494949494949494949FD4949FD49494949494949494949494949494949494949494949494949494949FD4949FD
310
49494949494949494949494949494949494949494949494949494949FD4949FD49494949494949494949494949494949494949494949494949494949FDFDFDFD49494949494949494949494949494949494949494949494949494949FD4949FD49494949494949494949494949494949494949494949494949494949FD4949
310
FD494949494949494949FDFDFD49494949494949494949494949494949FD4949FD494949494949494949FD49FDFD494949494949494949494949494949FD4949FD494949494949494949FD4949FD494949494949494949494949494949FD4949FD4949494949494949FDFD49FD49494949494949494949494949494949FD49
310
49FD4949494949494949FDFD49FD49494949494949494949494949494949FD4949FD4949494949494949FD49FD494949494949494949494949494949494949FD49FD4949494949494949FDFDFD494949494949494949494949494949494949FD49FDFD494949494949FDFD49FD494949494949494949494949494949494949
310
FDFD49FDFD49494949FDFD49FDFD49494949494949494949494949494949494949FD4949FDFDFDFDFDFD4949FD494949494949494949494949494949494949494949FDFD494949494949FDFD4949494949494949494949494949494949494949494949FDFDFD4949FDFDFD4949494949494949494949494949494949494949
310
494949494949FDFDFD4949494949494949494949494949494949494949494949494949494949494949494949494949494949494949494949
102
{BLKREFS
331
16D
102
}
 70
     1
280
     1
281
     0
  0
BLOCK_RECORD
  5
16E
330
1
100
AcDbSymbolTableRecord
100
AcDbBlockTableRecord
  2
AMSTD_Beale_4931.380_Plan View
340
0
310
2800000020000000200000000100080000000000000400000000000000000000000000000000000000000000000080000080000000808000800000008000800080800000C0C0C000C0DCC000F0CAA6000020400000206000002080000020A0000020C0000020E00000400000004020000040400000406000004080000040A0
310
000040C0000040E00000600000006020000060400000606000006080000060A0000060C0000060E00000800000008020000080400000806000008080000080A0000080C0000080E00000A0000000A0200000A0400000A0600000A0800000A0A00000A0C00000A0E00000C0000000C0200000C0400000C0600000C0800000C0
310
A00000C0C00000C0E00000E0000000E0200000E0400000E0600000E0800000E0A00000E0C00000E0E00040000000400020004000400040006000400080004000A0004000C0004000E00040200000402020004020400040206000402080004020A0004020C0004020E000404000004040200040404000404060004040800040
310
40A0004040C0004040E00040600000406020004060400040606000406080004060A0004060C0004060E00040800000408020004080400040806000408080004080A0004080C0004080E00040A0000040A0200040A0400040A0600040A0800040A0A00040A0C00040A0E00040C0000040C0200040C0400040C0600040C08000
310
40C0A00040C0C00040C0E00040E0000040E0200040E0400040E0600040E0800040E0A00040E0C00040E0E00080000000800020008000400080006000800080008000A0008000C0008000E00080200000802020008020400080206000802080008020A0008020C0008020E00080400000804020008040400080406000804080
310
008040A0008040C0008040E00080600000806020008060400080606000806080008060A0008060C0008060E00080800000808020008080400080806000808080008080A0008080C0008080E00080A0000080A0200080A0400080A0600080A0800080A0A00080A0C00080A0E00080C0000080C0200080C0400080C0600080C0
310
800080C0A00080C0C00080C0E00080E0000080E0200080E0400080E0600080E0800080E0A00080E0C00080E0E000C0000000C0002000C0004000C0006000C0008000C000A000C000C000C000E000C0200000C0202000C0204000C0206000C0208000C020A000C020C000C020E000C0400000C0402000C0404000C0406000C0
310
408000C040A000C040C000C040E000C0600000C0602000C0604000C0606000C0608000C060A000C060C000C060E000C0800000C0802000C0804000C0806000C0808000C080A000C080C000C080E000C0A00000C0A02000C0A04000C0A06000C0A08000C0A0A000C0A0C000C0A0E000C0C00000C0C02000C0C04000C0C06000
310
C0C08000C0C0A000F0FBFF00A4A0A000808080000000FF0000FF000000FFFF00FF000000FF00FF00FFFF0000FFFFFF004949494949494949494949494949494949494949494949494949494949494949494949494949494949494949FDFD4949494949494949494949494949494949494949494949494949494949FDFD49FD
310
FD494949494949494949494949494949494949494949494949494949FD494949FD494949494949494949494949494949494949494949494949494949FDFDFDFDFD494949494949494949494949494949494949494949494949494949FD49FDFDFD494949494949494949494949494949494949494949494949494949FDFDFD
310
49FD494949494949494949494949494949494949494949494949494949FDFDFD49FD494949494949494949494949494949494949494949494949494949FDFDFD49FD494949494949494949494949494949494949494949494949494949FD494949FD494949494949494949494949494949494949494949494949494949FD49
310
4949FD494949494949494949494949494949494949494949494949494949FD494949FD494949494949494949494949494949494949494949494949494949FD494949FD494949494949494949494949494949494949494949494949494949FD494949FD494949494949494949494949494949494949494949494949494949FD
310
494949FD494949494949494949494949494949494949494949494949494949FD494949FD494949494949494949494949494949494949494949494949494949FD494949FD494949494949494949494949494949494949494949494949494949FD494949FD494949494949494949494949494949494949494949494949494949
310
FD494949FD494949494949494949494949494949494949494949494949494949FD494949FD494949494949494949494949494949494949494949494949494949FD494949FD494949494949494949494949494949494949494949494949494949FD494949FD4949494949494949494949494949494949494949494949494949
310
49FD494949FD494949494949494949494949494949494949494949494949494949FD494949FDFDFDFDFDFDFD4949494949494949494949494949494949494949FDFD494949FD494949FD49FD4949494949494949494949494949494949494949FDFD494949FD494949FD49FD49494949494949494949494949494949494949
310
49FDFD494949FD494949FD49FD4949494949494949494949494949494949494949FDFDFDFDFDFDFDFDFDFDFDFD4949494949494949494949494949494949494949FDFD4949FDFDFD4949494949494949494949494949494949494949494949494949FDFD49FDFD494949494949494949494949494949494949494949494949
310
4949494949FD4949494949494949494949494949494949494949494949494949494949494949494949494949494949494949494949494949
102
{BLKREFS
331
1BB
102
}
 70
     1
280
     1
281
     0
  0
BLOCK_RECORD
  5
1BC
330
1
100
AcDbSymbolTableRecord
100
AcDbBlockTableRecord
  2
AMSTD_Beale_4931.380_Front View
340
0
310
2800000020000000200000000100080000000000000400000000000000000000000000000000000000000000000080000080000000808000800000008000800080800000C0C0C000C0DCC000F0CAA6000020400000206000002080000020A0000020C0000020E00000400000004020000040400000406000004080000040A0
310
000040C0000040E00000600000006020000060400000606000006080000060A0000060C0000060E00000800000008020000080400000806000008080000080A0000080C0000080E00000A0000000A0200000A0400000A0600000A0800000A0A00000A0C00000A0E00000C0000000C0200000C0400000C0600000C0800000C0
310
A00000C0C00000C0E00000E0000000E0200000E0400000E0600000E0800000E0A00000E0C00000E0E00040000000400020004000400040006000400080004000A0004000C0004000E00040200000402020004020400040206000402080004020A0004020C0004020E000404000004040200040404000404060004040800040
310
40A0004040C0004040E00040600000406020004060400040606000406080004060A0004060C0004060E00040800000408020004080400040806000408080004080A0004080C0004080E00040A0000040A0200040A0400040A0600040A0800040A0A00040A0C00040A0E00040C0000040C0200040C0400040C0600040C08000
310
40C0A00040C0C00040C0E00040E0000040E0200040E0400040E0600040E0800040E0A00040E0C00040E0E00080000000800020008000400080006000800080008000A0008000C0008000E00080200000802020008020400080206000802080008020A0008020C0008020E00080400000804020008040400080406000804080
310
008040A0008040C0008040E00080600000806020008060400080606000806080008060A0008060C0008060E00080800000808020008080400080806000808080008080A0008080C0008080E00080A0000080A0200080A0400080A0600080A0800080A0A00080A0C00080A0E00080C0000080C0200080C0400080C0600080C0
310
800080C0A00080C0C00080C0E00080E0000080E0200080E0400080E0600080E0800080E0A00080E0C00080E0E000C0000000C0002000C0004000C0006000C0008000C000A000C000C000C000E000C0200000C0202000C0204000C0206000C0208000C020A000C020C000C020E000C0400000C0402000C0404000C0406000C0
310
408000C040A000C040C000C040E000C0600000C0602000C0604000C0606000C0608000C060A000C060C000C060E000C0800000C0802000C0804000C0806000C0808000C080A000C080C000C080E000C0A00000C0A02000C0A04000C0A06000C0A08000C0A0A000C0A0C000C0A0E000C0C00000C0C02000C0C04000C0C06000
310
C0C08000C0C0A000F0FBFF00A4A0A000808080000000FF0000FF000000FFFF00FF000000FF00FF00FFFF0000FFFFFF004949494949494949494949494949494949494949494949494949494949494949494949494949494949494949FDFDFDFDFD494949494949494949494949494949494949494949494949494949FDFDFD
310
FDFD49494949494949494949494949494949494949494949494949494949FD49FD4949494949494949494949494949494949494949494949494949494949FD49FD4949494949494949494949494949494949494949494949494949494949FD49FD4949494949494949494949494949494949494949494949494949494949FD
310
49FD4949494949494949494949494949494949494949494949494949494949FDFDFDFDFDFDFD49494949494949494949494949494949494949494949494949FDFDFD49FDFDFD49494949494949494949494949494949494949494949494949FD49FDFDFDFDFD49494949494949494949494949494949494949494949494949
310
FD49FD4949FDFD49494949494949494949494949494949494949494949494949FD49FD4949FDFD49494949494949494949494949494949494949494949494949FD49FD4949FDFD49494949494949494949494949494949494949494949494949FD49FD49494949494949494949494949494949494949494949494949494949
310
49FD49FD4949494949494949494949494949494949494949494949494949494949FD49FD4949494949494949494949494949494949494949494949494949494949FDFDFD4949494949494949494949494949494949494949494949494949494949FD49FD494949494949494949494949494949494949494949494949494949
310
4949FDFDFD4949494949494949494949494949494949494949494949494949494949FDFDFD4949494949494949494949494949494949494949494949494949494949FD49FD4949494949494949494949494949494949494949494949494949494949FD49FD4949494949494949494949494949494949494949494949494949
310
494949FD49FD4949494949494949494949494949494949494949494949494949494949FD49FD4949494949494949494949494949494949494949494949494949494949FDFDFD4949494949494949494949494949494949494949494949494949494949FDFDFD49494949494949494949494949494949494949494949494949
310
49494949FDFDFD4949494949494949494949494949494949494949494949494949494949FDFDFD4949494949494949494949494949494949494949494949494949494949FDFDFD4949494949494949494949494949494949494949494949494949494949FDFDFD494949494949494949494949494949494949494949494949
310
494949494949FD49494949494949494949494949494949494949494949494949494949494949494949494949494949494949494949494949
102
{BLKREFS
331
201
102
}
 70
     1
280
     1
281
     0
  0
ENDTAB
  0
ENDSEC
  0
SECTION
  2
BLOCKS
  0
BLOCK
  5
71
330
70
100
AcDbEntity
  8
0
100
AcDbBlockBegin
  2
*Model_Space
 70
     0
 10
0.0
 20
0.0
 30
0.0
  3
*Model_Space
  1

  0
ENDBLK
  5
72
330
70
100
AcDbEntity
  8
0
100
AcDbBlockEnd
  0
BLOCK
  5
6D
330
6C
100
AcDbEntity
 67
     1
  8
0
100
AcDbBlockBegin
  2
*Paper_Space
 70
     0
 10
0.0
 20
0.0
 30
0.0
  3
*Paper_Space
  1

  0
ENDBLK
  5
6E
330
6C
100
AcDbEntity
 67
     1
  8
0
100
AcDbBlockEnd
  0
BLOCK
  5
75
330
74
100
AcDbEntity
 67
     1
  8
0
100
AcDbBlockBegin
  2
*Paper_Space0
 70
     0
 10
0.0
 20
0.0
 30
0.0
  3
*Paper_Space0
  1

  0
ENDBLK
  5
76
330
74
100
AcDbEntity
 67
     1
  8
0
100
AcDbBlockEnd
  0
BLOCK
  5
12E
330
12D
100
AcDbEntity
  8
0
100
AcDbBlockBegin
  2
AMSTD_Beale_4931.380_Side View
 70
     0
 10
0.0
 20
0.0
 30
0.0
  3
AMSTD_Beale_4931.380_Side View
  1

  0
LINE
  5
130
330
12D
100
AcDbEntity
  8
4931.380
100
AcDbLine
 10
-0.3938545338571773
 20
13.18612984005526
 30
0.0
 11
-0.3938545338572369
 21
8.863327464753464
 31
0.0
1001
REVIT
1002
{
1070
     2
1000
-2001160
1002
}
  0
LINE
  5
131
330
12D
100
AcDbEntity
  8
4931.380
100
AcDbLine
 10
-0.3938545338572376
 20
8.82967319646614
 30
0.0
 11
-0.3938545338572687
 21
6.573006922827255
 31
0.0
1001
REVIT
1002
{
1070
     2
1000
-2001160
1002
}
  0
LINE
  5
132
330
12D
100
AcDbEntity
  8
4931.380
100
AcDbLine
 10
1.106145466142645
 20
0.249999999999998
 30
0.0
 11
1.106145466142764
 21
8.829673196466119
 31
0.0
1001
REVIT
1002
{
1070
     2
1000
-2001160
1002
}
  0
LINE
  5
133
330
12D
100
AcDbEntity
  8
4931.380
100
AcDbLine
 10
1.106145466142764
 20
8.863327464753442
 30
0.0
 11
1.106145466142824
 21
13.18612984005524
 31
0.0
1001
REVIT
1002
{
1070
     2
1000
-2001160
1002
}
  0
LWPOLYLINE
  5
134
330
12D
100
AcDbEntity
  8
4931.380
100
AcDbPolyline
 90
       57
 70
   128
 43
0.0
 10
6.674110986894548
 20
16.66157387348674
 10
6.532986968580471
 20
16.76594587044906
 10
6.387802067762367
 20
16.8645909254161
 10
6.238788549310419
 20
16.95735122734309
 10
6.086184803066296
 20
17.04407837953473
 10
5.930234962470253
 20
17.12463363704834
 10
5.771188513999724
 20
17.19888812865608
 10
5.609299898044159
 20
17.26672306301152
 10
5.444828101854695
 20
17.32802991869035
 10
5.278036245219787
 20
17.38271061780159
 10
5.109191159529685
 20
17.43067768289126
 10
4.938562960903131
 20
17.47185437688763
 10
4.766424618059187
 20
17.50617482586422
 10
4.593051515625512
 20
17.53358412442396
 10
4.418721013581714
 20
17.55403842353615
 10
4.243712003542539
 20
17.56750500068558
 10
4.068304462590783
 20
17.57396231222152
 10
3.892779005373692
 20
17.573400027823
 10
3.717416435179377
 20
17.56581904702511
 10
3.542497294711464
 20
17.55123149777993
 10
3.368301417280609
 20
17.52966071705442
 10
3.195107479130893
 20
17.50114121349621
 10
3.02319255361729
 20
17.46571861222717
 10
2.852831667947391
 20
17.42344958185289
 10
2.68429736319655
 20
17.37440174380507
 10
2.517859258300304
 20
17.31865356416161
 10
2.353783618721582
 20
17.25629422811762
 10
2.192332930482775
 20
17.18742349730816
 10
2.033765480244087
 20
17.11215155021088
 10
1.878334942099982
 20
17.03059880588398
 10
1.726289971754747
 20
16.9428957313214
 10
1.577873808726399
 20
16.84918263273344
 10
1.433323887215361
 20
16.74960943108678
 10
1.292871456260376
 20
16.6443354222629
 10
1.156741209789387
 20
16.53352902221867
 10
1.025150927157176
 20
16.41736749755672
 10
0.8983111247448579
 20
16.29603668193671
 10
0.7764247191785785
 20
16.16973067878109
 10
0.6596867027061963
 20
16.03865155075109
 10
0.5482838312512854
 20
15.90300899648947
 10
0.442394325643496
 20
15.76302001514753
 10
0.3421875865032442
 20
15.61890855923271
 10
0.247823923236855
 20
15.47090517633231
 10
0.1594542975757155
 20
15.31924664028662
 10
0.0772200820697005
 20
15.16417557240119
 10
0.0012528339212577
 20
15.00594005330461
 10
-0.0683259154780588
 20
14.84479322607229
 10
-0.1314048549718838
 20
14.68099289125167
 10
-0.1878830717131514
 20
14.51480109443624
 10
-0.2376702126031184
 20
14.34648370704856
 10
-0.2806866288370515
 20
14.17631000100264
 10
-0.316863503325322
 20
14.00455221792637
 10
-0.3461429607860704
 20
13.83148513363297
 10
-0.3684781603333103
 20
13.65738561853831
 10
-0.3838333704123551
 20
13.48253219472727
 10
-0.3921840259626823
 20
13.30720459037789
 10
-0.3938545338571779
 20
13.18612984005525
1001
REVIT
1002
{
1070
     2
1000
-2001160
1002
}
  0
LWPOLYLINE
  5
135
330
12D
100
AcDbEntity
  8
4931.380
100
AcDbPolyline
 90
        5
 70
   128
 43
0.0
 10
7.137454907470307
 20
16.24896359015842
 10
7.012460273949344
 20
16.37219444622124
 10
6.882637702917945
 20
16.49032827857172
 10
6.748194882795762
 20
16.60317609827865
 10
6.706522270071237
 20
16.63634255278144
1001
REVIT
1002
{
1070
     2
1000
-2001160
1002
}
  0
LINE
  5
136
330
12D
100
AcDbEntity
  8
4931.380
100
AcDbLine
 10
7.344602019423609
 20
16.02090897864217
 30
0.0
 11
7.302684074070223
 21
16.06971550856727
 31
0.0
1001
REVIT
1002
{
1070
     2
1000
-2001160
1002
}
  0
LWPOLYLINE
  5
137
330
12D
100
AcDbEntity
  8
4931.380
100
AcDbPolyline
 90
        9
 70
   128
 43
0.0
 10
8.202379002378675
 20
14.43235492528674
 10
8.149177514153519
 20
14.59962448003488
 10
8.089329583320347
 20
14.76463274488851
 10
8.022930953801616
 20
14.92711574182371
 10
7.95008784924027
 20
15.08681353270662
 10
7.870916803064572
 20
15.24347063513884
 10
7.785544472059482
 20
15.39683643117489
 10
7.694107433742813
 20
15.5466655682574
 10
7.689033465169273
 20
15.55459887692837
1001
REVIT
1002
{
1070
     2
1000
-2001160
1002
}
  0
LINE
  5
138
330
12D
100
AcDbEntity
  8
4931.380
100
AcDbLine
 10
8.233515614233798
 20
14.32194466766233
 30
0.0
 11
8.211387467545684
 21
14.40152462977196
 31
0.0
1001
REVIT
1002
{
1070
     2
1000
-2001160
1002
}
  0
LWPOLYLINE
  5
139
330
12D
100
AcDbEntity
  8
4931.380
100
AcDbPolyline
 90
       73
 70
   128
 43
0.0
 10
1.106145466142823
 20
13.18612984005524
 10
1.108455919260539
 20
13.30163709250943
 10
1.115383582381566
 20
13.41695955799993
 10
1.126917372722734
 20
13.53191274518277
 10
1.143038838679908
 20
13.64631275348048
 10
1.163722189346618
 20
13.75997656728384
 10
1.188934335774011
 20
13.87272234873773
 10
1.218634943906107
 20
13.98436972864299
 10
1.252776499105687
 20
14.0947400950086
 10
1.291304382167574
 20
14.20365687879281
 10
1.334156956697714
 20
14.31094583637589
 10
1.381265667718253
 20
14.41643532831281
 10
1.43255515134088
 20
14.51995659391969
 10
1.487943355332972
 20
14.62134402125492
 10
1.547341670383663
 20
14.72043541206292
 10
1.610655071859834
 20
14.81707224125678
 10
1.677782271825264
 20
14.91109991052454
 10
1.748615881079714
 20
15.00236799565354
 10
1.823042580958738
 20
15.09073048717705
 10
1.900943304619382
 20
15.1760460239583
 10
1.982193427521723
 20
15.25817811933813
 10
2.066662966801552
 20
15.33699537948449
 10
2.154216789215228
 20
15.41237171359461
 10
2.244714827324042
 20
15.48418653561333
 10
2.33801230357224
 20
15.55232495714512
 10
2.433959961900222
 20
15.61667797125093
 10
2.532404306522408
 20
15.6771426268361
 10
2.633187847487742
 20
15.73362219335015
 10
2.736149352630021
 20
15.78602631553498
 10
2.841124105504967
 20
15.83427115797404
 10
2.9479441689014
 20
15.87827953921111
 10
3.056438653504951
 20
15.91798105522418
 10
3.166433991284509
 20
15.95331219205682
 10
3.277754213164048
 20
15.98421642742701
 10
3.390221230535606
 20
16.01064432115071
 10
3.503655120163077
 20
16.0325535942356
 10
3.617874412020994
 20
16.0499091965185
 10
3.732696379607866
 20
16.06268336273806
 10
3.847937332269601
 20
16.07085565695336
 10
3.963412909065368
 20
16.07441300523697
 10
4.078938373705766
 20
16.0733497165905
 10
4.194328910091494
 20
16.06766749204897
 10
4.309399917979661
 20
16.0573754219595
 10
4.423967308304827
 20
16.0424899714387
 10
4.537847797682206
 20
16.02303495403203
 10
4.650859201622006
 20
15.99904149361713
 10
4.762820725985737
 20
15.97054797461234
 10
4.873553256218265
 20
15.9375999805698
 10
4.982879643892903
 20
15.90025022125142
 10
5.090624990111086
 20
15.8585584483046
 10
5.196616925303315
 20
15.81259135967227
 10
5.300685884983688
 20
15.76242249289047
 10
5.402665381016912
 20
15.70813210744392
 10
5.5023922679638
 20
15.649807056368
 10
5.599707004079171
 20
15.58754064730242
 10
5.694453906544607
 20
15.52143249321889
 10
5.786481400527762
 20
15.45158835306164
 10
5.875642261669745
 20
15.37811996255562
 10
5.961793851612701
 20
15.30114485545321
 10
6.044798346190744
 20
15.22078617550531
 10
6.124522955919234
 20
15.13717247945756
 10
6.200840138429611
 20
15.05043753138699
 10
6.273627802509991
 20
14.96072008870806
 10
6.342769503425053
 20
14.86816368019035
 10
6.408154629202774
 20
14.77291637634317
 10
6.469678577589991
 20
14.67513055253433
 10
6.527242923393701
 20
14.57496264522207
 10
6.580755575940348
 20
14.47257290169008
 10
6.630130926401288
 20
14.36812512368602
 10
6.675289984748624
 20
14.2617864053737
 10
6.716160506122423
 20
14.15372686601803
 10
6.752677106407065
 20
14.04411937783051
 10
6.75273766019105
 20
14.0439246983328
1001
REVIT
1002
{
1070
     2
1000
-2001160
1002
}
  0
LINE
  5
13A
330
12D
100
AcDbEntity
  8
4931.380
100
AcDbLine
 10
6.762108671688074
 20
14.01319154681436
 30
0.0
 11
6.784626874800196
 21
13.93371610000855
 31
0.0
1001
REVIT
1002
{
1070
     2
1000
-2001160
1002
}
  0
LINE
  5
13B
330
12D
100
AcDbEntity
  8
4931.380
100
AcDbLine
 10
9.177631025947727
 20
10.79845798293715
 30
0.0
 11
8.233515614233795
 21
14.32194466766234
 31
0.0
1001
REVIT
1002
{
1070
     2
1000
-2001160
1002
}
  0
LINE
  5
13C
330
12D
100
AcDbEntity
  8
4931.380
100
AcDbLine
 10
6.784626874800193
 20
13.93371610000856
 30
0.0
 11
7.031403608963964
 21
13.01273278998345
 31
0.0
1001
REVIT
1002
{
1070
     2
1000
-2001160
1002
}
  0
LINE
  5
13D
330
12D
100
AcDbEntity
  8
4931.380
100
AcDbLine
 10
7.160813131515224
 20
12.52976987683892
 30
0.0
 11
7.237868296308263
 21
12.2421960868457
 31
0.0
1001
REVIT
1002
{
1070
     2
1000
-2001160
1002
}
  0
LINE
  5
13E
330
12D
100
AcDbEntity
  8
4931.380
100
AcDbLine
 10
7.57580104936085
 20
10.98101388291183
 30
0.0
 11
7.728742286514126
 21
10.41022941528337
 31
0.0
1001
REVIT
1002
{
1070
     2
1000
-2001160
1002
}
  0
LINE
  5
13F
330
12D
100
AcDbEntity
  8
4931.380
100
AcDbLine
 10
7.031403608963962
 20
13.01273278998345
 30
0.0
 11
6.932334664548887
 21
12.98618734633243
 31
0.0
1001
REVIT
1002
{
1070
     2
1000
-2001160
1002
}
  0
LINE
  5
140
330
12D
100
AcDbEntity
  8
4931.380
100
AcDbLine
 10
7.061744187100138
 20
12.50322443318789
 30
0.0
 11
7.160813131515224
 21
12.52976987683892
 31
0.0
1001
REVIT
1002
{
1070
     2
1000
-2001160
1002
}
  0
LINE
  5
141
330
12D
100
AcDbEntity
  8
4931.380
100
AcDbLine
 10
6.706522153560158
 20
16.63634247885732
 30
0.0
 11
6.700106491116786
 21
16.63095909886733
 31
0.0
1001
REVIT
1002
{
1070
     2
1000
-2001160
1002
}
  0
LINE
  5
142
330
12D
100
AcDbEntity
  8
4931.380
100
AcDbLine
 10
7.326320380295846
 20
16.00556883815247
 30
0.0
 11
7.344601888206732
 21
16.02090884469786
 31
0.0
1001
REVIT
1002
{
1070
     2
1000
-2001160
1002
}
  0
LWPOLYLINE
  5
143
330
12D
100
AcDbEntity
  8
4931.380
100
AcDbPolyline
 90
       18
 70
   128
 43
0.0
 10
7.264263851473828
 20
16.15618189385536
 10
7.268133523731446
 20
16.15186211435997
 10
7.271827355558146
 20
16.14739104461033
 10
7.275339437610983
 20
16.14277583736425
 10
7.278664151307875
 20
16.13802387596881
 10
7.281796177816143
 20
16.13314276254853
 10
7.284730506561503
 20
16.12814030584365
 10
7.28746244324392
 20
16.12302450871774
 10
7.289987617347482
 20
16.11780355535492
 10
7.2923019891323
 20
16.1124857981668
 10
7.294401856097224
 20
16.1070797444305
 10
7.296283858903059
 20
16.10159404267878
 10
7.29794498674679
 20
16.09603746886419
 10
7.299382582178217
 20
16.09041891231952
 10
7.300594345351322
 20
16.08474736153667
 10
7.301578337703524
 20
16.07903188978704
 10
7.30233298505697
 20
16.07328164060617
 10
7.302684074070224
 20
16.06971550856727
1001
REVIT
1002
{
1070
     2
1000
-2001160
1002
}
  0
LWPOLYLINE
  5
144
330
12D
100
AcDbEntity
  8
4931.380
100
AcDbPolyline
 90
       18
 70
   128
 43
0.0
 10
7.137454907470308
 20
16.24896359015842
 10
7.143148478473706
 20
16.24785991108397
 10
7.148793359836239
 20
16.24652943272148
 10
7.154380520951903
 20
16.24497428355252
 10
7.159901023554781
 20
16.24319695148402
 10
7.165346036018349
 20
16.24120027986813
 10
7.170706847484209
 20
16.23898746295352
 10
7.175974881797593
 20
16.23656204077519
 10
7.181141711227387
 20
16.23392789349124
 10
7.186199069948702
 20
16.23108923517541
 10
7.19113886726643
 20
16.22805060707544
 10
7.195953200558628
 20
16.22481687034811
 10
7.200634367919033
 20
16.22139319828233
 10
7.205174880478462
 20
16.21778506802307
 10
7.209567474385417
 20
16.21399825180906
 10
7.213805122426678
 20
16.21003880773842
 10
7.21788104526936
 20
16.20591307007703
 10
7.218758646745744
 20
16.20498025154903
1001
REVIT
1002
{
1070
     2
1000
-2001160
1002
}
  0
LWPOLYLINE
  5
145
330
12D
100
AcDbEntity
  8
4931.380
100
AcDbPolyline
 90
        2
 70
   128
 43
0.0
 10
7.218758646745743
 20
16.20498025154903
 10
7.264263851473828
 20
16.15618189385536
1001
REVIT
1002
{
1070
     2
1000
-2001160
1002
}
  0
LINE
  5
146
330
12D
100
AcDbEntity
  8
4931.380
100
AcDbLine
 10
6.776534099251017
 20
14.05030093496165
 30
0.0
 11
6.784845125871348
 21
14.01928376135152
 31
0.0
1001
REVIT
1002
{
1070
     2
1000
-2001160
1002
}
  0
LINE
  5
147
330
12D
100
AcDbEntity
  8
4931.380
100
AcDbLine
 10
8.190542772590303
 20
14.39593931059219
 30
0.0
 11
8.182231745969973
 21
14.42695648420233
 31
0.0
1001
REVIT
1002
{
1070
     2
1000
-2001160
1002
}
  0
LINE
  5
148
330
12D
100
AcDbEntity
  8
4931.380
100
AcDbLine
 10
-0.3866542512108481
 20
8.863327464753464
 30
0.0
 11
-0.3866542512108481
 21
8.829673196466115
 31
0.0
1001
REVIT
1002
{
1070
     2
1000
-2001160
1002
}
  0
LINE
  5
149
330
12D
100
AcDbEntity
  8
4931.380
100
AcDbLine
 10
1.09894518349641
 20
8.829673196466119
 30
0.0
 11
1.09894518349641
 21
8.863327464753467
 31
0.0
1001
REVIT
1002
{
1070
     2
1000
-2001160
1002
}
  0
LINE
  5
14A
330
12D
100
AcDbEntity
  8
4931.380
100
AcDbLine
 10
8.029736326234349
 20
10.49088052515299
 30
0.0
 11
8.05769513614622
 21
10.38653682604273
 31
0.0
1001
REVIT
1002
{
1070
     2
1000
-2001160
1002
}
  0
LINE
  5
14B
330
12D
100
AcDbEntity
  8
4931.380
100
AcDbLine
 10
8.904595796139371
 20
10.61346317395728
 30
0.0
 11
8.876636986227502
 21
10.71780687306754
 31
0.0
1001
REVIT
1002
{
1070
     2
1000
-2001160
1002
}
  0
LINE
  5
14C
330
12D
100
AcDbEntity
  8
4931.380
100
AcDbLine
 10
-1.177339783491668
 20
6.422860017770603
 30
0.0
 11
-1.177339783491668
 21
-0.0000000000000011
 31
0.0
1001
REVIT
1002
{
1070
     2
1000
-2001160
1002
}
  0
LINE
  5
14D
330
12D
100
AcDbEntity
  8
4931.380
100
AcDbLine
 10
1.177339783491669
 20
-0.0000000000000011
 30
0.0
 11
1.177339783491669
 21
0.249999999999998
 31
0.0
1001
REVIT
1002
{
1070
     2
1000
-2001160
1002
}
  0
LINE
  5
14E
330
12D
100
AcDbEntity
  8
4931.380
100
AcDbLine
 10
1.177339783491668
 20
0.0
 30
0.0
 11
-1.177339783491668
 21
0.0
 31
0.0
1001
REVIT
1002
{
1070
     2
1000
-2001160
1002
}
  0
LINE
  5
14F
330
12D
100
AcDbEntity
  8
4931.380
100
AcDbLine
 10
-0.3938545338572362
 20
8.863327464753455
 30
0.0
 11
1.106145466142763
 21
8.863327464753433
 31
0.0
1001
REVIT
1002
{
1070
     2
1000
-2001160
1002
}
  0
LINE
  5
150
330
12D
100
AcDbEntity
  8
4931.380
100
AcDbLine
 10
-0.2028715282326523
 20
6.704658691081975
 30
0.0
 11
-0.2028715282327416
 21
0.2499999999999993
 31
0.0
1001
REVIT
1002
{
1070
     2
1000
-2001160
1002
}
  0
LINE
  5
151
330
12D
100
AcDbEntity
  8
4931.380
100
AcDbLine
 10
1.106145466142763
 20
8.829673196466108
 30
0.0
 11
-0.3938545338572367
 21
8.82967319646613
 31
0.0
1001
REVIT
1002
{
1070
     2
1000
-2001160
1002
}
  0
SPLINE
  5
152
330
12D
100
AcDbEntity
  8
4931.380
100
AcDbSpline
210
0.0
220
0.0
230
1.0
 70
    24
 71
     3
 72
    25
 73
    21
 74
     0
 42
0.000000001
 43
0.0000000001
 40
-1.0
 40
-1.0
 40
-1.0
 40
-1.0
 40
-0.861111111111111
 40
-0.7916666666666668
 40
-0.7569444444444445
 40
-0.7222222222222223
 40
-0.6875
 40
-0.6527777777777777
 40
-0.5833333333333333
 40
-0.5138888888888889
 40
-0.4791666666666666
 40
-0.4444444444444445
 40
-0.3888888888888888
 40
-0.3333333333333333
 40
-0.2777777777777778
 40
-0.2222222222222222
 40
-0.1666666666666666
 40
-0.1111111111111111
 40
-0.0555555555555556
 40
0.0
 40
0.0
 40
0.0
 40
0.0
 10
6.752737660191042
 20
14.04392469833278
 30
0.0
 10
6.753852023403416
 20
14.04422329105562
 30
0.0
 10
6.786823244801973
 20
14.05305790320283
 30
0.0
 10
6.88501693226941
 20
14.07936882246156
 30
0.0
 10
6.952312351075113
 20
14.09740057558487
 30
0.0
 10
7.010894209821805
 20
14.11309753732716
 30
0.0
 10
7.074909487152405
 20
14.13025037919116
 30
0.0
 10
7.163722827896991
 20
14.15404784212077
 30
0.0
 10
7.290128195972937
 20
14.18791805841568
 30
0.0
 10
7.418349422150408
 20
14.22227483242246
 30
0.0
 10
7.525750545359565
 20
14.25105287665255
 30
0.0
 10
7.618900852414358
 20
14.27601242620259
 30
0.0
 10
7.72658667210663
 20
14.30486675462542
 30
0.0
 10
7.84191884063674
 20
14.33576991604439
 30
0.0
 10
7.945456992868694
 20
14.36351288032076
 30
0.0
 10
8.035678593666775
 20
14.38768768539444
 30
0.0
 10
8.107940834386978
 20
14.40705029443869
 30
0.0
 10
8.162476067788112
 20
14.42166296618756
 30
0.0
 10
8.194118362075487
 20
14.43014149338853
 30
0.0
 10
8.201947330513677
 20
14.43223925915911
 30
0.0
 10
8.202379002378664
 20
14.43235492528673
 30
0.0
1001
REVIT
1002
{
1070
     2
1000
-2001160
1002
}
  0
SPLINE
  5
153
330
12D
100
AcDbEntity
  8
4931.380
100
AcDbSpline
210
0.0
220
0.0
230
1.0
 70
     8
 71
     3
 72
    13
 73
     9
 74
     0
 42
0.000000001
 43
0.0000000001
 40
-1.0
 40
-1.0
 40
-1.0
 40
-1.0
 40
-0.8571428571428571
 40
-0.7142857142857144
 40
-0.5714285714285714
 40
-0.4285714285714286
 40
-0.2857142857142857
 40
0.0
 40
0.0
 40
0.0
 40
0.0
 10
7.689033465169264
 20
15.55459887692836
 30
0.0
 10
7.689012230109589
 20
15.55458105859766
 30
0.0
 10
7.686696990126072
 20
15.55678099776601
 30
0.0
 10
7.676426674124809
 20
15.56646401320003
 30
0.0
 10
7.660267978235081
 20
15.58234304604767
 30
0.0
 10
7.63945995373723
 20
15.60399670347822
 30
0.0
 10
7.607546728016322
 20
15.6397181462665
 30
0.0
 10
7.58159425237712
 20
15.67291106733254
 30
0.0
 10
7.565416305393791
 20
15.69588409505674
 30
0.0
1001
REVIT
1002
{
1070
     2
1000
-2001160
1002
}
  0
ARC
  5
154
330
12D
100
AcDbEntity
  8
4931.380
100
AcDbCircle
 10
3.994596969613943
 20
13.1861298400552
 30
0.0
 40
4.364586710019354
100
AcDbArc
 50
35.10150784694042
 51
49.92527182943753
1001
REVIT
1002
{
1070
     2
1000
-2001160
1002
}
  0
SPLINE
  5
155
330
12D
100
AcDbEntity
  8
4931.380
100
AcDbSpline
210
0.0
220
0.0
230
1.0
 70
     8
 71
     3
 72
    14
 73
    10
 74
     0
 42
0.000000001
 43
0.0000000001
 40
-1.0
 40
-1.0
 40
-1.0
 40
-1.0
 40
-0.8571428571428571
 40
-0.7142857142857143
 40
-0.5714285714285714
 40
-0.4285714285714286
 40
-0.2857142857142857
 40
-0.1428571428571428
 40
0.0
 40
0.0
 40
0.0
 40
0.0
 10
6.804457566907941
 20
16.52593530939803
 30
0.0
 10
6.793680746639628
 20
16.53498740808355
 30
0.0
 10
6.772607424345322
 20
16.55361228893521
 30
0.0
 10
6.743769584309697
 20
16.58160045785516
 30
0.0
 10
6.719029014805438
 20
16.60783451113194
 30
0.0
 10
6.699204606141996
 20
16.63050975368255
 30
0.0
 10
6.684791507327247
 20
16.64800424101958
 30
0.0
 10
6.676069809639269
 20
16.65906187538233
 30
0.0
 10
6.67409211758606
 20
16.66155804025691
 30
0.0
 10
6.674110986894539
 20
16.66157387348673
 30
0.0
1001
REVIT
1002
{
1070
     2
1000
-2001160
1002
}
  0
SPLINE
  5
156
330
12D
100
AcDbEntity
  8
4931.380
100
AcDbSpline
210
0.0
220
0.0
230
1.0
 70
    24
 71
     3
 72
    24
 73
    20
 74
     0
 42
0.000000001
 43
0.0000000001
 40
-1.0
 40
-1.0
 40
-1.0
 40
-1.0
 40
-0.861111111111111
 40
-0.7916666666666668
 40
-0.7569444444444445
 40
-0.7222222222222223
 40
-0.6875
 40
-0.6527777777777777
 40
-0.5833333333333333
 40
-0.5138888888888889
 40
-0.4791666666666666
 40
-0.4444444444444445
 40
-0.3888888888888888
 40
-0.3333333333333333
 40
-0.2777777777777778
 40
-0.2222222222222222
 40
-0.1666666666666666
 40
-0.1111111111111111
 40
0.0
 40
0.0
 40
0.0
 40
0.0
 10
8.211387467545675
 20
14.40152462977194
 30
0.0
 10
8.210310103061845
 20
14.40123595082855
 30
0.0
 10
8.177366901500802
 20
14.39240884657417
 30
0.0
 10
8.078989025128182
 20
14.36604857404704
 30
0.0
 10
8.011726238394562
 20
14.3480255646611
 30
0.0
 10
7.953237993070247
 20
14.33235368655974
 30
0.0
 10
7.889317737448855
 20
14.315226305686
 30
0.0
 10
7.800542539462177
 20
14.29143906307757
 30
0.0
 10
7.674024637795782
 20
14.25753869349796
 30
0.0
 10
7.5457941062801
 20
14.22317942613333
 30
0.0
 10
7.438407623057686
 20
14.19440530467586
 30
0.0
 10
7.345280236046747
 20
14.16945189653306
 30
0.0
 10
7.237690716258187
 20
14.14062337159166
 30
0.0
 10
7.122468869370655
 20
14.10974977076772
 30
0.0
 10
7.018835632874791
 20
14.08198132873963
 30
0.0
 10
6.928532987079211
 20
14.05778480772432
 30
0.0
 10
6.856377301200501
 20
14.0384507499638
 30
0.0
 10
6.784020070457828
 20
14.01906268841975
 30
0.0
 10
6.762996916711045
 20
14.01342955135094
 30
0.0
 10
6.762108671688068
 20
14.01319154681434
 30
0.0
1001
REVIT
1002
{
1070
     2
1000
-2001160
1002
}
  0
SPLINE
  5
157
330
12D
100
AcDbEntity
  8
4931.380
100
AcDbSpline
210
0.0
220
0.0
230
1.0
 70
     8
 71
     3
 72
    12
 73
     8
 74
     0
 42
0.000000001
 43
0.0000000001
 40
-1.0
 40
-1.0
 40
-1.0
 40
-1.0
 40
-0.8571428571428571
 40
-0.7142857142857144
 40
-0.5714285714285714
 40
-0.4285714285714286
 40
-0.2857142857142857
 40
-0.2857142857142857
 40
-0.2857142857142857
 40
-0.2857142857142857
 10
6.706522270071224
 20
16.63634255278143
 30
0.0
 10
6.706510868723936
 20
16.63632517141499
 30
0.0
 10
6.708375219182535
 20
16.63401530339561
 30
0.0
 10
6.716572035976461
 20
16.62380790355616
 30
0.0
 10
6.730081552286865
 20
16.60764788432125
 30
0.0
 10
6.748607086244043
 20
16.58667774894159
 30
0.0
 10
6.76396611637173
 20
16.57046265880947
 30
0.0
 10
6.772265513255806
 20
16.56169316214936
 30
0.0
1001
REVIT
1002
{
1070
     2
1000
-2001160
1002
}
  0
SPLINE
  5
158
330
12D
100
AcDbEntity
  8
4931.380
100
AcDbSpline
210
0.0
220
0.0
230
1.0
 70
     8
 71
     3
 72
    14
 73
    10
 74
     0
 42
0.000000001
 43
0.0000000001
 40
-0.2820579029739166
 40
-0.2820579029739166
 40
-0.2820579029739166
 40
-0.2820579029739166
 40
-0.2647626892903542
 40
-0.2647626892903542
 40
-0.2647626892903542
 40
-0.142857142857143
 40
-0.142857142857143
 40
-0.142857142857143
 40
0.0
 40
0.0
 40
0.0
 40
0.0
 10
6.772265513255807
 20
16.56169316214937
 30
0.0
 10
6.77335269175545
 20
16.56064382679113
 30
0.0
 10
6.774439870255092
 20
16.5595944914329
 30
0.0
 10
6.775527048754734
 20
16.55854515607466
 30
0.0
 10
6.783190041042323
 20
16.55114890167865
 30
0.0
 10
6.790853033329912
 20
16.54375264728263
 30
0.0
 10
6.798817568902141
 20
16.53634094039795
 30
0.0
 10
6.808150948960088
 20
16.52765540228898
 30
0.0
 10
6.817898430371668
 20
16.5189486436893
 30
0.0
 10
6.82785423267028
 20
16.51047783038427
 30
0.0
1001
REVIT
1002
{
1070
     2
1000
-2001160
1002
}
  0
ARC
  5
159
330
12D
100
AcDbEntity
  8
4931.380
100
AcDbCircle
 10
3.994596969613943
 20
13.1861298400552
 30
0.0
 40
4.367909829594287
100
AcDbArc
 50
42.52768043403273
 51
49.55988883937935
1001
REVIT
1002
{
1070
     2
1000
-2001160
1002
}
  0
SPLINE
  5
15A
330
12D
100
AcDbEntity
  8
4931.380
100
AcDbSpline
210
0.0
220
0.0
230
1.0
 70
     8
 71
     3
 72
    14
 73
    10
 74
     0
 42
0.000000001
 43
0.0000000001
 40
-1.0
 40
-1.0
 40
-1.0
 40
-1.0
 40
-0.8571428571428571
 40
-0.7142857142857144
 40
-0.5714285714285714
 40
-0.4285714285714286
 40
-0.2857142857142857
 40
-0.1428571428571428
 40
0.0
 40
0.0
 40
0.0
 40
0.0
 10
7.213531888973797
 20
16.1386024079874
 30
0.0
 10
7.222415685170202
 20
16.12897712332998
 30
0.0
 10
7.240507359177748
 20
16.11004641609816
 30
0.0
 10
7.267550484620328
 20
16.08427006145481
 30
0.0
 10
7.292737263168688
 20
16.06204635876936
 30
0.0
 10
7.314517297459563
 20
16.04407997291352
 30
0.0
 10
7.331398800171967
 20
16.03085251144683
 30
0.0
 10
7.342145562864929
 20
16.0227526383563
 30
0.0
 10
7.344575061812783
 20
16.02089419798571
 30
0.0
 10
7.344602019423601
 20
16.02090897864214
 30
0.0
1001
REVIT
1002
{
1070
     2
1000
-2001160
1002
}
  0
SPLINE
  5
15B
330
12D
100
AcDbEntity
  8
4931.380
100
AcDbSpline
210
0.0
220
0.0
230
1.0
 70
     8
 71
     3
 72
    27
 73
    23
 74
     0
 42
0.000000001
 43
0.0000000001
 40
0.0
 40
0.0
 40
0.0
 40
0.0
 40
0.1111111111111111
 40
0.2222222222222222
 40
0.25
 40
0.2777777777777778
 40
0.3333333333333333
 40
0.3611111111111111
 40
0.3888888888888888
 40
0.4444444444444445
 40
0.4791666666666666
 40
0.5138888888888889
 40
0.5486111111111111
 40
0.5833333333333333
 40
0.6180555555555555
 40
0.6527777777777777
 40
0.6875
 40
0.7222222222222223
 40
0.7569444444444445
 40
0.7916666666666668
 40
0.861111111111111
 40
1.0
 40
1.0
 40
1.0
 40
1.0
 10
7.302684074070214
 20
16.06971550856725
 30
0.0
 10
7.302660639107603
 20
16.06974239346214
 30
0.0
 10
7.299081969417827
 20
16.07246948923836
 30
0.0
 10
7.2871008594504
 20
16.08196603352969
 30
0.0
 10
7.276433461319513
 20
16.09095120124671
 30
0.0
 10
7.268494955408272
 20
16.09774927149473
 30
0.0
 10
7.259782344174143
 20
16.10543862019693
 30
0.0
 10
7.250431195212606
 20
16.11408566493437
 30
0.0
 10
7.240438889862399
 20
16.12355259021531
 30
0.0
 10
7.229630092423778
 20
16.13420232593834
 30
0.0
 10
7.218212395773094
 20
16.14610408959484
 30
0.0
 10
7.208473348690588
 20
16.1566322748625
 30
0.0
 10
7.199176376414145
 20
16.16705601606835
 30
0.0
 10
7.190519420744602
 20
16.17718193414344
 30
0.0
 10
7.182041350792583
 20
16.18749168413176
 30
0.0
 10
7.17420149318054
 20
16.19734427526192
 30
0.0
 10
7.167283007742172
 20
16.20633827130853
 30
0.0
 10
7.160917645494664
 20
16.21492919908808
 30
0.0
 10
7.155266722694485
 20
16.22275710458715
 30
0.0
 10
7.148894654759017
 20
16.23178045152043
 30
0.0
 10
7.140291819783124
 20
16.24454247565954
 30
0.0
 10
7.137472708154471
 20
16.24894532438687
 30
0.0
 10
7.137454907470299
 20
16.2489635901584
 30
0.0
1001
REVIT
1002
{
1070
     2
1000
-2001160
1002
}
  0
LINE
  5
15C
330
12D
100
AcDbEntity
  8
4931.380
100
AcDbLine
 10
9.177631025947718
 20
10.79845798293714
 30
0.0
 11
7.728742286514117
 21
10.41022941528336
 31
0.0
1001
REVIT
1002
{
1070
     2
1000
-2001160
1002
}
  0
SPLINE
  5
15D
330
12D
100
AcDbEntity
  8
4931.380
100
AcDbSpline
210
0.0
220
0.0
230
1.0
 70
     8
 71
     3
 72
    12
 73
     8
 74
     0
 42
0.000000001
 43
0.0000000001
 40
0.0
 40
0.0
 40
0.0
 40
0.0
 40
0.1428571428571428
 40
0.2857142857142857
 40
0.5714285714285714
 40
0.7857142857142857
 40
1.0
 40
1.0
 40
1.0
 40
1.0
 10
7.031403608963956
 20
13.01273278998344
 30
0.0
 10
7.031422871896795
 20
13.01266089973937
 30
0.0
 10
7.033904673977429
 20
13.00899619039925
 30
0.0
 10
7.048209624171391
 20
12.98677642860768
 30
0.0
 10
7.076688569521325
 20
12.93924458034208
 30
0.0
 10
7.112282255619509
 20
12.86299103092974
 30
0.0
 10
7.130054197658842
 20
12.81010434958625
 30
0.0
 10
7.137540038064047
 20
12.78235291534582
 30
0.0
1001
REVIT
1002
{
1070
     2
1000
-2001160
1002
}
  0
SPLINE
  5
15E
330
12D
100
AcDbEntity
  8
4931.380
100
AcDbSpline
210
0.0
220
0.0
230
1.0
 70
     8
 71
     3
 72
    12
 73
     8
 74
     0
 42
0.000000001
 43
0.0000000001
 40
0.0
 40
0.0
 40
0.0
 40
0.0
 40
0.1428571428571428
 40
0.2857142857142857
 40
0.5714285714285714
 40
0.7857142857142857
 40
1.0
 40
1.0
 40
1.0
 40
1.0
 10
7.137540038064047
 20
12.78235291534581
 30
0.0
 10
7.14246856417114
 20
12.76383533718163
 30
0.0
 10
7.150647439195398
 20
12.72755960096293
 30
0.0
 10
7.160914002063003
 20
12.65643683439744
 30
0.0
 10
7.16324312836644
 20
12.58810670923933
 30
0.0
 10
7.161511413064163
 20
12.54000135617843
 30
0.0
 10
7.160784237115957
 20
12.529877712205
 30
0.0
 10
7.160813131515216
 20
12.5297698768389
 30
0.0
1001
REVIT
1002
{
1070
     2
1000
-2001160
1002
}
  0
LINE
  5
15F
330
12D
100
AcDbEntity
  8
4931.380
100
AcDbLine
 10
7.245019061646533
 20
12.24411212864335
 30
0.0
 11
7.582951814699118
 21
10.98292992470948
 31
0.0
1001
REVIT
1002
{
1070
     2
1000
-2001160
1002
}
  0
LINE
  5
160
330
12D
100
AcDbEntity
  8
4931.380
100
AcDbLine
 10
-0.2101067595805018
 20
6.704658691081975
 30
0.0
 11
-0.2028715282325889
 21
6.704658691081975
 31
0.0
1001
REVIT
1002
{
1070
     2
1000
-2001160
1002
}
  0
ARC
  5
161
330
12D
100
AcDbEntity
  8
4931.380
100
AcDbCircle
 10
-0.60421012099679
 20
7.058379675726031
 30
0.0
 40
0.5295620780014158
100
AcDbArc
 50
269.9999999999998
 51
318.0909594676784
1001
REVIT
1002
{
1070
     2
1000
-2001160
1002
}
  0
LINE
  5
162
330
12D
100
AcDbEntity
  8
4931.380
100
AcDbLine
 10
7.06174418710013
 20
12.50322443318788
 30
0.0
 11
6.932334664548879
 21
12.98618734633242
 31
0.0
1001
REVIT
1002
{
1070
     2
1000
-2001160
1002
}
  0
LINE
  5
163
330
12D
100
AcDbEntity
  8
4931.380
100
AcDbLine
 10
7.322607927050712
 20
11.5296677018398
 30
0.0
 11
7.138799351893164
 21
12.21565064319467
 31
0.0
1001
REVIT
1002
{
1070
     2
1000
-2001160
1002
}
  0
LINE
  5
164
330
12D
100
AcDbEntity
  8
4931.380
100
AcDbLine
 10
7.476732104945727
 20
10.95446843926079
 30
0.0
 11
7.439684457136265
 21
11.09273214318662
 31
0.0
1001
REVIT
1002
{
1070
     2
1000
-2001160
1002
}
  0
LINE
  5
165
330
12D
100
AcDbEntity
  8
4931.380
100
AcDbLine
 10
7.245019061646525
 20
12.24411212864335
 30
0.0
 11
7.138799351893164
 21
12.21565064319467
 31
0.0
1001
REVIT
1002
{
1070
     2
1000
-2001160
1002
}
  0
ARC
  5
166
330
12D
100
AcDbEntity
  8
4931.380
100
AcDbCircle
 10
7.627507560027757
 20
11.37721225209743
 30
0.0
 40
0.3408906721306524
100
AcDbArc
 50
153.4341019625119
 51
236.5658980374863
1001
REVIT
1002
{
1070
     2
1000
-2001160
1002
}
  0
LINE
  5
167
330
12D
100
AcDbEntity
  8
4931.380
100
AcDbLine
 10
7.476732104945727
 20
10.95446843926079
 30
0.0
 11
7.582951814699131
 21
10.98292992470948
 31
0.0
1001
REVIT
1002
{
1070
     2
1000
-2001160
1002
}
  0
LINE
  5
168
330
12D
100
AcDbEntity
  8
4931.380
100
AcDbLine
 10
8.057695136146211
 20
10.38653682604272
 30
0.0
 11
8.904595796139361
 21
10.61346317395727
 31
0.0
1001
REVIT
1002
{
1070
     2
1000
-2001160
1002
}
  0
SPLINE
  5
169
330
12D
100
AcDbEntity
  8
4931.380
100
AcDbSpline
210
0.0
220
0.0
230
1.0
 70
     8
 71
     3
 72
    12
 73
     8
 74
     0
 42
0.000000001
 43
0.0000000001
 40
-1.0
 40
-1.0
 40
-1.0
 40
-1.0
 40
-0.6666666666666666
 40
-0.5
 40
-0.3333333333333333
 40
-0.1666666666666666
 40
0.0
 40
0.0
 40
0.0
 40
0.0
 10
-1.177339783491666
 20
6.422860017770598
 30
0.0
 10
-1.177339783491666
 20
6.43709361991809
 30
0.0
 10
-1.173129510854407
 20
6.458085582370916
 30
0.0
 10
-1.15897683758969
 20
6.483869517428637
 30
0.0
 10
-1.144023510735684
 20
6.501145886801493
 30
0.0
 10
-1.124651818658583
 20
6.515655562205846
 30
0.0
 10
-1.108749437628291
 20
6.522241739954686
 30
0.0
 10
-1.100046799250077
 20
6.524866633744068
 30
0.0
1001
REVIT
1002
{
1070
     2
1000
-2001160
1002
}
  0
LINE
  5
16A
330
12D
100
AcDbEntity
  8
4931.380
100
AcDbLine
 10
-1.071382203537722
 20
6.528817597724615
 30
0.0
 11
-0.6042101209967886
 21
6.528817597724615
 31
0.0
1001
REVIT
1002
{
1070
     2
1000
-2001160
1002
}
  0
SPLINE
  5
16B
330
12D
100
AcDbEntity
  8
4931.380
100
AcDbSpline
210
0.0
220
0.0
230
1.0
 70
     8
 71
     3
 72
     9
 73
     5
 74
     0
 42
0.000000001
 43
0.0000000001
 40
-1.0
 40
-1.0
 40
-1.0
 40
-1.0
 40
-0.5
 40
0.0
 40
0.0
 40
0.0
 40
0.0
 10
-1.100046799250078
 20
6.524866633744068
 30
0.0
 10
-1.096904077962155
 20
6.525960371417485
 30
0.0
 10
-1.088863212911092
 20
6.52771260308766
 30
0.0
 10
-1.077655562259188
 20
6.528594347404517
 30
0.0
 10
-1.071382203537723
 20
6.528817597724614
 30
0.0
1001
REVIT
1002
{
1070
     2
1000
-2001160
1002
}
  0
LINE
  5
16C
330
12D
100
AcDbEntity
  8
4931.380
100
AcDbLine
 10
-1.177339783491668
 20
0.25
 30
0.0
 11
1.177339783491668
 21
0.25
 31
0.0
1001
REVIT
1002
{
1070
     2
1000
-2001160
1002
}
  0
ENDBLK
  5
12F
330
12D
100
AcDbEntity
  8
0
100
AcDbBlockEnd
  0
BLOCK
  5
16F
330
16E
100
AcDbEntity
  8
0
100
AcDbBlockBegin
  2
AMSTD_Beale_4931.380_Plan View
 70
     0
 10
0.0
 20
0.0
 30
0.0
  3
AMSTD_Beale_4931.380_Plan View
  1

  0
LINE
  5
170
330
16E
100
AcDbEntity
  8
4931.380
100
AcDbLine
 10
-0.7500097732799411
 20
-0.3561454661427609
 30
0.0
 11
-0.7500097732799542
 21
-8.42900666061563
 31
0.0
1001
REVIT
1002
{
1070
     1
1000
62367
1002
}
1002
{
1070
     2
1000
-2001160
1002
}
  0
ARC
  5
171
330
16E
100
AcDbEntity
  8
4931.380
100
AcDbCircle
 10
-0.0000097732797495
 20
-8.429006660615634
 30
0.0
 40
0.7500000000002045
100
AcDbArc
 50
179.9999999999997
 51
359.9999999999992
1001
REVIT
1002
{
1070
     1
1000
62367
1002
}
1002
{
1070
     2
1000
-2001160
1002
}
  0
LINE
  5
172
330
16E
100
AcDbEntity
  8
4931.380
100
AcDbLine
 10
0.7499902267204549
 20
-8.429006660615639
 30
0.0
 11
0.7499902267204561
 21
-0.3561454661427633
 31
0.0
1001
REVIT
1002
{
1070
     1
1000
62367
1002
}
1002
{
1070
     2
1000
-2001160
1002
}
  0
LINE
  5
173
330
16E
100
AcDbEntity
  8
4931.380
100
AcDbLine
 10
0.7499902267204669
 20
-1.061444144103349
 30
0.0
 11
2.101917342499276
 21
-1.061444144103352
 31
0.0
1001
REVIT
1002
{
1070
     1
1000
62367
1002
}
1002
{
1070
     2
1000
-2001160
1002
}
  0
LINE
  5
174
330
16E
100
AcDbEntity
  8
4931.380
100
AcDbLine
 10
2.101917342499276
 20
-1.061444144103352
 30
0.0
 11
2.101917342499281
 21
0.3491532118179344
 31
0.0
1001
REVIT
1002
{
1070
     1
1000
62367
1002
}
1002
{
1070
     2
1000
-2001160
1002
}
  0
LINE
  5
175
330
16E
100
AcDbEntity
  8
4931.380
100
AcDbLine
 10
2.101917342499277
 20
-0.9608402128542987
 30
0.0
 11
2.151558007219793
 21
-0.9547451056336619
 31
0.0
1001
REVIT
1002
{
1070
     1
1000
62367
1002
}
1002
{
1070
     2
1000
-2001160
1002
}
  0
LINE
  5
176
330
16E
100
AcDbEntity
  8
4931.380
100
AcDbLine
 10
2.151558007219797
 20
0.3280989545840986
 30
0.0
 11
2.151558007219792
 21
-1.040389886869517
 31
0.0
1001
REVIT
1002
{
1070
     1
1000
62367
1002
}
1002
{
1070
     2
1000
-2001160
1002
}
  0
ARC
  5
177
330
16E
100
AcDbEntity
  8
4931.380
100
AcDbCircle
 10
2.172612264453627
 20
-1.040389886869517
 30
0.0
 40
0.021054257233835
100
AcDbArc
 50
180.0
 51
269.9999999999984
1001
REVIT
1002
{
1070
     1
1000
62367
1002
}
1002
{
1070
     2
1000
-2001160
1002
}
  0
LINE
  5
178
330
16E
100
AcDbEntity
  8
4931.380
100
AcDbLine
 10
2.172612264453627
 20
-1.061444144103352
 30
0.0
 11
3.125519406047696
 21
-1.061444144103355
 31
0.0
1001
REVIT
1002
{
1070
     1
1000
62367
1002
}
1002
{
1070
     2
1000
-2001160
1002
}
  0
LINE
  5
179
330
16E
100
AcDbEntity
  8
4931.380
100
AcDbLine
 10
3.125519406047696
 20
-1.061444144103355
 30
0.0
 11
3.125519406047698
 21
0.3491532118179304
 31
0.0
1001
REVIT
1002
{
1070
     1
1000
62367
1002
}
1002
{
1070
     2
1000
-2001160
1002
}
  0
LINE
  5
17A
330
16E
100
AcDbEntity
  8
4931.380
100
AcDbLine
 10
3.125519406047698
 20
0.3491532118179304
 30
0.0
 11
2.172612264453631
 21
0.3491532118179334
 31
0.0
1001
REVIT
1002
{
1070
     1
1000
62367
1002
}
1002
{
1070
     2
1000
-2001160
1002
}
  0
ARC
  5
17B
330
16E
100
AcDbEntity
  8
4931.380
100
AcDbCircle
 10
2.172612264453632
 20
0.3280989545840985
 30
0.0
 40
0.0210542572338349
100
AcDbArc
 50
90.00000000000104
 51
179.9999999999989
1001
REVIT
1002
{
1070
     1
1000
62367
1002
}
1002
{
1070
     2
1000
-2001160
1002
}
  0
LINE
  5
17C
330
16E
100
AcDbEntity
  8
4931.380
100
AcDbLine
 10
2.151558007219797
 20
0.2424541733482432
 30
0.0
 11
2.101917342499281
 21
0.2485492805688802
 31
0.0
1001
REVIT
1002
{
1070
     1
1000
62367
1002
}
1002
{
1070
     2
1000
-2001160
1002
}
  0
ARC
  5
17D
330
16E
100
AcDbEntity
  8
4931.380
100
AcDbCircle
 10
0.0
 20
0.0
 30
0.0
 40
1.177339783491667
100
AcDbArc
 50
17.2511729512909
 51
230.4287222022823
1001
REVIT
1002
{
1070
     1
1000
62367
1002
}
1002
{
1070
     2
1000
-2001160
1002
}
  0
ARC
  5
17E
330
16E
100
AcDbEntity
  8
4931.380
100
AcDbCircle
 10
-0.0000097732799412
 20
-0.3561454661427621
 30
0.0
 40
0.7500000000000005
100
AcDbArc
 50
359.9999999999995
 51
179.9999999999998
1001
REVIT
1002
{
1070
     1
1000
62853
1002
}
1002
{
1070
     2
1000
-2001160
1002
}
  0
LINE
  5
17F
330
16E
100
AcDbEntity
  8
4931.380
100
AcDbLine
 10
-0.500009773279539
 20
0.2028715282325449
 30
0.0
 11
-0.5000097732795377
 21
0.9832531158679934
 31
0.0
1001
REVIT
1002
{
1070
     1
1000
62909
1002
}
1002
{
1070
     2
1000
-2001160
1002
}
  0
LINE
  5
180
330
16E
100
AcDbEntity
  8
4931.380
100
AcDbLine
 10
0.4999554018711216
 20
0.2029026745715838
 30
0.0
 11
0.4999554018711228
 21
0.9832738512372579
 31
0.0
1001
REVIT
1002
{
1070
     1
1000
62949
1002
}
1002
{
1070
     2
1000
-2001160
1002
}
  0
LINE
  5
181
330
16E
100
AcDbEntity
  8
4931.380
100
AcDbLine
 10
2.101917342499281
 20
0.3491532118179344
 30
0.0
 11
0.4999554018711219
 21
0.3491532118179405
 31
0.0
1001
REVIT
1002
{
1070
     1
1000
62989
1002
}
1002
{
1070
     2
1000
-2001160
1002
}
  0
ARC
  5
182
330
16E
100
AcDbEntity
  8
4931.380
100
AcDbCircle
 10
-0.3750097732795402
 20
0.983253115867993
 30
0.0
 40
0.125
100
AcDbArc
 50
110.87670027345
 51
179.9999999999999
1001
REVIT
1002
{
1070
     1
1000
63061
1002
}
1002
{
1070
     2
1000
-2001160
1002
}
  0
ARC
  5
183
330
16E
100
AcDbEntity
  8
4931.380
100
AcDbCircle
 10
0.3749554018711276
 20
0.9832738512372587
 30
0.0
 40
0.1250000000000001
100
AcDbArc
 50
359.9999999999991
 51
69.12646800471681
1001
REVIT
1002
{
1070
     1
1000
63067
1002
}
1002
{
1070
     2
1000
-2001160
1002
}
  0
LINE
  5
184
330
16E
100
AcDbEntity
  8
4931.380
100
AcDbLine
 10
2.819509136545736
 20
0.3475060186521913
 30
0.0
 11
2.819509136545733
 21
-1.059796950937579
 31
0.0
1001
REVIT
1002
{
1070
     1
1000
63206
1002
}
1002
{
1070
     2
1000
-2001160
1002
}
  0
ARC
  5
185
330
16E
100
AcDbEntity
  8
4931.380
100
AcDbCircle
 10
0.0107793388373012
 20
-7.450530020391447
 30
0.0
 40
0.7670951720582143
100
AcDbArc
 50
187.3517379658578
 51
230.648262033914
1001
REVIT
1002
{
1070
     1
1000
63284
1002
}
1002
{
1070
     2
1000
-2001160
1002
}
  0
ARC
  5
186
330
16E
100
AcDbEntity
  8
4931.380
100
AcDbCircle
 10
-0.0066067352808365
 20
-7.471732560868284
 30
0.0
 40
0.7396757757134122
100
AcDbArc
 50
230.6482620339139
 51
263.3517379658707
1001
REVIT
1002
{
1070
     1
1000
63316
1002
}
1002
{
1070
     2
1000
-2001160
1002
}
  0
ARC
  5
187
330
16E
100
AcDbEntity
  8
4931.380
100
AcDbCircle
 10
-0.0107988853973775
 20
-7.450530020391447
 30
0.0
 40
0.7670951720582144
100
AcDbArc
 50
309.3517379660852
 51
352.6482620341414
1001
REVIT
1002
{
1070
     1
1000
63332
1002
}
1002
{
1070
     2
1000
-2001160
1002
}
  0
ARC
  5
188
330
16E
100
AcDbEntity
  8
4931.380
100
AcDbCircle
 10
0.0065871887207602
 20
-7.471732560868284
 30
0.0
 40
0.7396757757134123
100
AcDbArc
 50
276.6482620341315
 51
309.3517379660854
1001
REVIT
1002
{
1070
     1
1000
63333
1002
}
1002
{
1070
     2
1000
-2001160
1002
}
  0
ARC
  5
189
330
16E
100
AcDbEntity
  8
4931.380
100
AcDbCircle
 10
-0.00000977328004
 20
-7.415134279955344
 30
0.0
 40
0.7966572227812084
100
AcDbArc
 50
263.3517379658708
 51
276.6482620341315
1001
REVIT
1002
{
1070
     1
1000
63352
1002
}
1002
{
1070
     2
1000
-2001160
1002
}
  0
LINE
  5
18A
330
16E
100
AcDbEntity
  8
4931.380
100
AcDbLine
 10
-0.1878412571564898
 20
-7.565404741566011
 30
0.0
 11
-0.1878412571564885
 21
-6.800199089840633
 31
0.0
1001
REVIT
1002
{
1070
     1
1000
63396
1002
}
1002
{
1070
     2
1000
-2001160
1002
}
  0
ARC
  5
18B
330
16E
100
AcDbEntity
  8
4931.380
100
AcDbCircle
 10
-0.0773224893243055
 20
-6.804886814764613
 30
0.0
 40
0.110618139597929
100
AcDbArc
 50
118.4287816648474
 51
177.5712183351462
1001
REVIT
1002
{
1070
     1
1000
63530
1002
}
1002
{
1070
     2
1000
-2001160
1002
}
  0
ARC
  5
18C
330
16E
100
AcDbEntity
  8
4931.380
100
AcDbCircle
 10
0.0097232532492849
 20
-6.96568143569751
 30
0.0
 40
0.2934619839601111
100
AcDbArc
 50
101.5712183351569
 51
118.4287816648467
1001
REVIT
1002
{
1070
     1
1000
63621
1002
}
1002
{
1070
     2
1000
-2001160
1002
}
  0
LINE
  5
18D
330
16E
100
AcDbEntity
  8
4931.380
100
AcDbLine
 10
-0.174259059494106
 20
-7.213532079914504
 30
0.0
 11
-0.1742590594941054
 21
-6.792482252138809
 31
0.0
1001
REVIT
1002
{
1070
     1
1000
63717
1002
}
1002
{
1070
     2
1000
-2001160
1002
}
  0
ARC
  5
18E
330
16E
100
AcDbEntity
  8
4931.380
100
AcDbCircle
 10
-0.0819796129652674
 20
-6.798916838407626
 30
0.0
 40
0.092503514269024
100
AcDbArc
 50
125.9887414360376
 51
176.0112585639425
1001
REVIT
1002
{
1070
     1
1000
63756
1002
}
1002
{
1070
     2
1000
-2001160
1002
}
  0
ARC
  5
18F
330
16E
100
AcDbEntity
  8
4931.380
100
AcDbCircle
 10
-0.006532716537115
 20
-6.902803504795319
 30
0.0
 40
0.2208961683960743
100
AcDbArc
 50
100.0112585639539
 51
125.9887414360367
1001
REVIT
1002
{
1070
     1
1000
63794
1002
}
1002
{
1070
     2
1000
-2001160
1002
}
  0
ARC
  5
190
330
16E
100
AcDbEntity
  8
4931.380
100
AcDbCircle
 10
-0.0762561791368443
 20
-7.213532079914504
 30
0.0
 40
0.098002880357262
100
AcDbArc
 50
179.9999999999999
 51
227.9999999999983
1001
REVIT
1002
{
1070
     1
1000
63860
1002
}
1002
{
1070
     2
1000
-2001160
1002
}
  0
ARC
  5
191
330
16E
100
AcDbEntity
  8
4931.380
100
AcDbCircle
 10
-0.0191046909259245
 20
-7.17651954366967
 30
0.0
 40
0.1647047988542452
100
AcDbArc
 50
221.8288323935742
 51
258.1711676064218
1001
REVIT
1002
{
1070
     1
1000
63891
1002
}
1002
{
1070
     2
1000
-2001160
1002
}
  0
ARC
  5
192
330
16E
100
AcDbEntity
  8
4931.380
100
AcDbCircle
 10
-0.0821856876554529
 20
-7.212531676252032
 30
0.0
 40
0.0517933043148839
100
AcDbArc
 50
137.7510347592661
 51
186.2489652407328
1001
REVIT
1002
{
1070
     1
1000
63924
1002
}
1002
{
1070
     2
1000
-2001160
1002
}
  0
ARC
  5
193
330
16E
100
AcDbEntity
  8
4931.380
100
AcDbCircle
 10
-0.0448968428773247
 20
-7.246401249046
 30
0.0
 40
0.1021679597095683
100
AcDbArc
 50
102.2489652407341
 51
137.7510347592657
1001
REVIT
1002
{
1070
     1
1000
63950
1002
}
1002
{
1070
     2
1000
-2001160
1002
}
  0
ARC
  5
194
330
16E
100
AcDbEntity
  8
4931.380
100
AcDbCircle
 10
-0.0655655853824335
 20
-7.209838549007992
 30
0.0
 40
0.0686132901512874
100
AcDbArc
 50
186.9738489735292
 51
231.0261510264661
1001
REVIT
1002
{
1070
     1
1000
64030
1002
}
1002
{
1070
     2
1000
-2001160
1002
}
  0
ARC
  5
195
330
16E
100
AcDbEntity
  8
4931.380
100
AcDbCircle
 10
-0.0253152528240642
 20
-7.177713550442905
 30
0.0
 40
0.119420123332406
100
AcDbArc
 50
225.6994009674272
 51
250.300599032562
1001
REVIT
1002
{
1070
     1
1000
64055
1002
}
1002
{
1070
     2
1000
-2001160
1002
}
  0
ARC
  5
196
330
16E
100
AcDbEntity
  8
4931.380
100
AcDbCircle
 10
-0.1122795287136918
 20
-7.565404741566011
 30
0.0
 40
0.0755617284427981
100
AcDbArc
 50
179.9999999999999
 51
221.9999999999946
1001
REVIT
1002
{
1070
     1
1000
64117
1002
}
1002
{
1070
     2
1000
-2001160
1002
}
  0
ARC
  5
197
330
16E
100
AcDbEntity
  8
4931.380
100
AcDbCircle
 10
-0.0468077145304739
 20
-7.527692123047059
 30
0.0
 40
0.1502825433538122
100
AcDbArc
 50
215.9714569897229
 51
250.0285430102747
1001
REVIT
1002
{
1070
     1
1000
64146
1002
}
1002
{
1070
     2
1000
-2001160
1002
}
  0
ARC
  5
198
330
16E
100
AcDbEntity
  8
4931.380
100
AcDbCircle
 10
-0.079146800549806
 20
-7.488139702986572
 30
0.0
 40
0.1098067997834303
100
AcDbArc
 50
188.1622465744281
 51
231.8377534255489
1001
REVIT
1002
{
1070
     1
1000
64198
1002
}
1002
{
1070
     2
1000
-2001160
1002
}
  0
ARC
  5
199
330
16E
100
AcDbEntity
  8
4931.380
100
AcDbCircle
 10
-0.0267374612951405
 20
-7.421448936144837
 30
0.0
 40
0.1946265924208175
100
AcDbArc
 50
231.8377534255494
 51
260.1622465744329
1001
REVIT
1002
{
1070
     1
1000
64229
1002
}
1002
{
1070
     2
1000
-2001160
1002
}
  0
LINE
  5
19A
330
16E
100
AcDbEntity
  8
4931.380
100
AcDbLine
 10
0.1878217105964135
 20
-7.565404741566011
 30
0.0
 11
0.1878217105964123
 21
-6.800199089840633
 31
0.0
1001
REVIT
1002
{
1070
     1
1000
64296
1002
}
1002
{
1070
     2
1000
-2001160
1002
}
  0
ARC
  5
19B
330
16E
100
AcDbEntity
  8
4931.380
100
AcDbCircle
 10
0.0773029427642292
 20
-6.804886814764613
 30
0.0
 40
0.110618139597929
100
AcDbArc
 50
2.428781664853784
 51
61.57121833515254
1001
REVIT
1002
{
1070
     1
1000
64297
1002
}
1002
{
1070
     2
1000
-2001160
1002
}
  0
ARC
  5
19C
330
16E
100
AcDbEntity
  8
4931.380
100
AcDbCircle
 10
-0.0097427998093611
 20
-6.96568143569751
 30
0.0
 40
0.2934619839601111
100
AcDbArc
 50
61.57121833515327
 51
78.42878166484789
1001
REVIT
1002
{
1070
     1
1000
64298
1002
}
1002
{
1070
     2
1000
-2001160
1002
}
  0
LINE
  5
19D
330
16E
100
AcDbEntity
  8
4931.380
100
AcDbLine
 10
0.1742395129340298
 20
-7.213532079914504
 30
0.0
 11
0.1742395129340291
 21
-6.792482252138809
 31
0.0
1001
REVIT
1002
{
1070
     1
1000
64299
1002
}
1002
{
1070
     2
1000
-2001160
1002
}
  0
ARC
  5
19E
330
16E
100
AcDbEntity
  8
4931.380
100
AcDbCircle
 10
0.0819600664051912
 20
-6.798916838407626
 30
0.0
 40
0.0925035142690239
100
AcDbArc
 50
3.988741436057533
 51
54.01125856396236
1001
REVIT
1002
{
1070
     1
1000
64300
1002
}
1002
{
1070
     2
1000
-2001160
1002
}
  0
ARC
  5
19F
330
16E
100
AcDbEntity
  8
4931.380
100
AcDbCircle
 10
0.0065131699770387
 20
-6.902803504795319
 30
0.0
 40
0.2208961683960743
100
AcDbArc
 50
54.01125856396333
 51
79.98874143604854
1001
REVIT
1002
{
1070
     1
1000
64301
1002
}
1002
{
1070
     2
1000
-2001160
1002
}
  0
ARC
  5
1A0
330
16E
100
AcDbEntity
  8
4931.380
100
AcDbCircle
 10
0.076236632576768
 20
-7.213532079914504
 30
0.0
 40
0.0980028803572618
100
AcDbArc
 50
312.0000000000013
 51
0.0000000000000572
1001
REVIT
1002
{
1070
     1
1000
64302
1002
}
1002
{
1070
     2
1000
-2001160
1002
}
  0
ARC
  5
1A1
330
16E
100
AcDbEntity
  8
4931.380
100
AcDbCircle
 10
0.0190851443658482
 20
-7.17651954366967
 30
0.0
 40
0.1647047988542451
100
AcDbArc
 50
281.8288323935743
 51
318.171167606425
1001
REVIT
1002
{
1070
     1
1000
64303
1002
}
1002
{
1070
     2
1000
-2001160
1002
}
  0
ARC
  5
1A2
330
16E
100
AcDbEntity
  8
4931.380
100
AcDbCircle
 10
0.0821661410953766
 20
-7.212531676252032
 30
0.0
 40
0.0517933043148839
100
AcDbArc
 50
353.7510347592665
 51
42.24896524073386
1001
REVIT
1002
{
1070
     1
1000
64304
1002
}
1002
{
1070
     2
1000
-2001160
1002
}
  0
ARC
  5
1A3
330
16E
100
AcDbEntity
  8
4931.380
100
AcDbCircle
 10
0.0448772963172485
 20
-7.246401249046
 30
0.0
 40
0.1021679597095682
100
AcDbArc
 50
42.24896524073431
 51
77.75103475926325
1001
REVIT
1002
{
1070
     1
1000
64305
1002
}
1002
{
1070
     2
1000
-2001160
1002
}
  0
ARC
  5
1A4
330
16E
100
AcDbEntity
  8
4931.380
100
AcDbCircle
 10
0.0655460388223572
 20
-7.209838549007992
 30
0.0
 40
0.0686132901512874
100
AcDbArc
 50
308.9738489735332
 51
353.0261510264701
1001
REVIT
1002
{
1070
     1
1000
64306
1002
}
1002
{
1070
     2
1000
-2001160
1002
}
  0
ARC
  5
1A5
330
16E
100
AcDbEntity
  8
4931.380
100
AcDbCircle
 10
0.025295706263988
 20
-7.177713550442905
 30
0.0
 40
0.1194201233324059
100
AcDbArc
 50
289.6994009674235
 51
314.3005990325721
1001
REVIT
1002
{
1070
     1
1000
64307
1002
}
1002
{
1070
     2
1000
-2001160
1002
}
  0
ARC
  5
1A6
330
16E
100
AcDbEntity
  8
4931.380
100
AcDbCircle
 10
0.1122599821536156
 20
-7.565404741566011
 30
0.0
 40
0.0755617284427979
100
AcDbArc
 50
318.0000000000051
 51
0.0000000000000477
1001
REVIT
1002
{
1070
     1
1000
64308
1002
}
1002
{
1070
     2
1000
-2001160
1002
}
  0
ARC
  5
1A7
330
16E
100
AcDbEntity
  8
4931.380
100
AcDbCircle
 10
0.0467881679703977
 20
-7.527692123047059
 30
0.0
 40
0.1502825433538122
100
AcDbArc
 50
289.9714569897229
 51
324.0285430102763
1001
REVIT
1002
{
1070
     1
1000
64309
1002
}
1002
{
1070
     2
1000
-2001160
1002
}
  0
ARC
  5
1A8
330
16E
100
AcDbEntity
  8
4931.380
100
AcDbCircle
 10
0.0791272539897297
 20
-7.488139702986572
 30
0.0
 40
0.1098067997834303
100
AcDbArc
 50
308.1622465744504
 51
351.8377534255711
1001
REVIT
1002
{
1070
     1
1000
64310
1002
}
1002
{
1070
     2
1000
-2001160
1002
}
  0
ARC
  5
1A9
330
16E
100
AcDbEntity
  8
4931.380
100
AcDbCircle
 10
0.0267179147350643
 20
-7.421448936144837
 30
0.0
 40
0.1946265924208175
100
AcDbArc
 50
279.837753425559
 51
308.1622465744498
1001
REVIT
1002
{
1070
     1
1000
64311
1002
}
1002
{
1070
     2
1000
-2001160
1002
}
  0
ARC
  5
1AA
330
16E
100
AcDbEntity
  8
4931.380
100
AcDbCircle
 10
-0.0000097732800355
 20
-6.981022127451281
 30
0.0
 40
0.3067979401378402
100
AcDbArc
 50
80.78485189828882
 51
99.21514810171666
1001
REVIT
1002
{
1070
     1
1000
64327
1002
}
1002
{
1070
     2
1000
-2001160
1002
}
  0
ARC
  5
1AB
330
16E
100
AcDbEntity
  8
4931.380
100
AcDbCircle
 10
-0.0000097732800377
 20
-6.979627384575222
 30
0.0
 40
0.297764947253475
100
AcDbArc
 50
81.32263120156045
 51
98.67736879844152
1001
REVIT
1002
{
1070
     1
1000
64358
1002
}
1002
{
1070
     2
1000
-2001160
1002
}
  0
ARC
  5
1AC
330
16E
100
AcDbEntity
  8
4931.380
100
AcDbCircle
 10
-0.0000097732800373
 20
-7.385335170300628
 30
0.0
 40
0.2478802628303305
100
AcDbArc
 50
74.42325054843731
 51
105.576749451562
1001
REVIT
1002
{
1070
     1
1000
64385
1002
}
1002
{
1070
     2
1000
-2001160
1002
}
  0
ARC
  5
1AD
330
16E
100
AcDbEntity
  8
4931.380
100
AcDbCircle
 10
-0.0000097732800394
 20
-7.126455845606885
 30
0.0
 40
0.1763295874696565
100
AcDbArc
 50
248.1730068500067
 51
291.826993149984
1001
REVIT
1002
{
1070
     1
1000
64422
1002
}
1002
{
1070
     2
1000
-2001160
1002
}
  0
ARC
  5
1AE
330
16E
100
AcDbEntity
  8
4931.380
100
AcDbCircle
 10
-0.0000097732800391
 20
-7.16300377397044
 30
0.0
 40
0.1825432264900322
100
AcDbArc
 50
253.168282951828
 51
286.8317170481691
1001
REVIT
1002
{
1070
     1
1000
64456
1002
}
1002
{
1070
     2
1000
-2001160
1002
}
  0
ARC
  5
1AF
330
16E
100
AcDbEntity
  8
4931.380
100
AcDbCircle
 10
-0.0000097732800404
 20
-7.343858514347505
 30
0.0
 40
0.2759528038230735
100
AcDbArc
 50
257.4459273108737
 51
282.5540726891214
1001
REVIT
1002
{
1070
     1
1000
64477
1002
}
1002
{
1070
     2
1000
-2001160
1002
}
  0
ARC
  5
1B0
330
16E
100
AcDbEntity
  8
4931.380
100
AcDbCircle
 10
-0.0000097732800382
 20
-7.439475614195669
 30
0.0
 40
0.2495626827813518
100
AcDbArc
 50
246.8464414345788
 51
293.1535585654194
1001
REVIT
1002
{
1070
     1
1000
64512
1002
}
1002
{
1070
     2
1000
-2001160
1002
}
  0
ENDBLK
  5
1B1
330
16E
100
AcDbEntity
  8
0
100
AcDbBlockEnd
  0
BLOCK
  5
1BD
330
1BC
100
AcDbEntity
  8
0
100
AcDbBlockBegin
  2
AMSTD_Beale_4931.380_Front View
 70
     0
 10
0.0
 20
0.0
 30
0.0
  3
AMSTD_Beale_4931.380_Front View
  1

  0
LINE
  5
1BE
330
1BC
100
AcDbEntity
  8
4931.380
100
AcDbLine
 10
0.7499902267200024
 20
3.294701322040631
 30
0.0
 11
2.101917342499283
 21
3.294701322040626
 31
0.0
1001
REVIT
1002
{
1070
     2
1000
-2001160
1002
}
  0
LINE
  5
1BF
330
1BC
100
AcDbEntity
  8
4931.380
100
AcDbLine
 10
2.336539480339559
 20
3.294701322040626
 30
0.0
 11
3.125519406047714
 21
3.294701322040623
 31
0.0
1001
REVIT
1002
{
1070
     2
1000
-2001160
1002
}
  0
LINE
  5
1C0
330
1BC
100
AcDbEntity
  8
4931.380
100
AcDbLine
 10
2.819509136545781
 20
4.705298677961886
 30
0.0
 11
2.151558007219805
 21
4.705298677961889
 31
0.0
1001
REVIT
1002
{
1070
     2
1000
-2001160
1002
}
  0
LINE
  5
1C1
330
1BC
100
AcDbEntity
  8
4931.380
100
AcDbLine
 10
2.101917342499288
 20
4.705298677961889
 30
0.0
 11
0.7499902267200174
 21
4.705298677961891
 31
0.0
1001
REVIT
1002
{
1070
     2
1000
-2001160
1002
}
  0
LINE
  5
1C2
330
1BC
100
AcDbEntity
  8
4931.380
100
AcDbLine
 10
0.7499902267199714
 20
0.2500000000000007
 30
0.0
 11
0.7499902267200027
 21
3.294701322040631
 31
0.0
1001
REVIT
1002
{
1070
     2
1000
-2001160
1002
}
  0
LINE
  5
1C3
330
1BC
100
AcDbEntity
  8
4931.380
100
AcDbLine
 10
0.7499902267200174
 20
4.705298677961891
 30
0.0
 11
0.7499902267200593
 21
8.829673196466098
 31
0.0
1001
REVIT
1002
{
1070
     2
1000
-2001160
1002
}
  0
LINE
  5
1C4
330
1BC
100
AcDbEntity
  8
4931.380
100
AcDbLine
 10
0.7499902267200597
 20
8.863327464753469
 30
0.0
 11
0.7499902267201417
 21
16.82458134352634
 31
0.0
1001
REVIT
1002
{
1070
     2
1000
-2001160
1002
}
  0
LINE
  5
1C5
330
1BC
100
AcDbEntity
  8
4931.380
100
AcDbLine
 10
-0.7500097732798599
 20
16.82458134352636
 30
0.0
 11
-0.7500097732799417
 21
8.863327464753462
 31
0.0
1001
REVIT
1002
{
1070
     2
1000
-2001160
1002
}
  0
LINE
  5
1C6
330
1BC
100
AcDbEntity
  8
4931.380
100
AcDbLine
 10
-0.7500097732799422
 20
8.829673196466137
 30
0.0
 11
-0.7500097732800302
 21
0.249999999999998
 31
0.0
1001
REVIT
1002
{
1070
     2
1000
-2001160
1002
}
  0
LWPOLYLINE
  5
1C7
330
1BC
100
AcDbEntity
  8
4931.380
100
AcDbPolyline
 90
       41
 70
   128
 43
0.0
 10
-0.0000097732798541
 20
17.57458134352634
 10
0.0299822273601216
 20
17.57398142352208
 10
0.0599262471970255
 20
17.57218262325331
 10
0.0897743821868355
 20
17.56918782041674
 10
0.1194788816808306
 20
17.56500180605806
 10
0.148992224816442
 20
17.55963127690727
 10
0.1782671965404971
 20
17.55308482466537
 10
0.2072569631432313
 20
17.54537292225942
 10
0.2359151471822343
 20
17.53650790708817
 10
0.2641959016764634
 20
17.52650396128479
 10
0.2920539834516338
 20
17.51537708902851
 10
0.3194448255196457
 20
17.50314509094131
 10
0.3463246083762583
 20
17.48982753561081
 10
0.3726503301029483
 20
17.47544572828458
 10
0.3983798751608084
 20
17.4600226767864
 10
0.4234720817664222
 20
17.4435830547086
 10
0.4478868077419398
 20
17.42615316193956
 10
0.4715849947339971
 20
17.40776088258954
 10
0.4945287306987504
 20
17.38843564038201
 10
0.5166813105530591
 20
17.36820835158202
 10
0.5380072948947877
 20
17.34711137553671
 10
0.5584725666982897
 20
17.32517846290732
 10
0.578044385894372
 20
17.30244470167528
 10
0.5966914417474198
 20
17.27894646100894
 10
0.6143839029458938
 20
17.25472133308068
 10
0.6310934653260673
 20
17.22980807292744
 10
0.6467933971526483
 20
17.20424653645093
 10
0.6614585818838551
 20
17.17807761665665
 10
0.675065558352523
 20
17.15134317823387
 10
0.6875925582989693
 20
17.12408599058105
 10
0.6990195411955634
 20
17.09634965938384
 10
0.7093282263072981
 20
17.06817855685542
 10
0.7185021219370623
 20
17.03961775075031
 10
0.726526551808842
 20
17.01071293226562
 10
0.7333886785466298
 20
16.9815103429449
 10
0.739077524211488
 20
16.95205670070152
 10
0.7435839878639072
 20
16.92239912507995
 10
0.7469008601233723
 20
16.89258506187457
 10
0.7490228347018294
 20
16.86266220722652
 10
0.749946516892617
 20
16.83267843132004
 10
0.7499902267201417
 20
16.82458134352634
1001
REVIT
1002
{
1070
     2
1000
-2001160
1002
}
  0
LWPOLYLINE
  5
1C8
330
1BC
100
AcDbEntity
  8
4931.380
100
AcDbPolyline
 90
       41
 70
   128
 43
0.0
 10
-0.7500097732798599
 20
16.82458134352635
 10
-0.7494098532755932
 20
16.85457334416633
 10
-0.7476110530068241
 20
16.88451736400323
 10
-0.744616250170259
 20
16.91436549899304
 10
-0.7404302358115793
 20
16.94406999848703
 10
-0.7350597066607902
 20
16.97358334162265
 10
-0.7285132544188811
 20
17.0028583133467
 10
-0.7208013520129368
 20
17.03184807994944
 10
-0.711936336841689
 20
17.06050626398844
 10
-0.7019323910383094
 20
17.08878701848267
 10
-0.6908055187820218
 20
17.11664510025784
 10
-0.6785735206948305
 20
17.14403594232585
 10
-0.6652559653643208
 20
17.17091572518246
 10
-0.6508741580380948
 20
17.19724144690915
 10
-0.6354511065399193
 20
17.22297099196701
 10
-0.6190114844621159
 20
17.24806319857263
 10
-0.6015815916930764
 20
17.27247792454814
 10
-0.5831893123430528
 20
17.2961761115402
 10
-0.5638640701355278
 20
17.31911984750495
 10
-0.5436367813355352
 20
17.34127242735926
 10
-0.5225398052902303
 20
17.36259841170099
 10
-0.5006068926608371
 20
17.38306368350449
 10
-0.477873131428791
 20
17.40263550270057
 10
-0.4543748907624529
 20
17.42128255855362
 10
-0.4301497628341981
 20
17.4389750197521
 10
-0.40523650268096
 20
17.45568458213227
 10
-0.3796749662044389
 20
17.47138451395885
 10
-0.35350604641016
 20
17.48604969869006
 10
-0.326771607987389
 20
17.49965667515873
 10
-0.2995144203345594
 20
17.51218367510517
 10
-0.2717780891373599
 20
17.52361065800177
 10
-0.2436069866089367
 20
17.5339193431135
 10
-0.2150461805038209
 20
17.54309323874327
 10
-0.186141362019134
 20
17.55111766861504
 10
-0.1569387726984187
 20
17.55797979535283
 10
-0.1274851304550348
 20
17.56366864101769
 10
-0.0978275548334632
 20
17.56817510467011
 10
-0.0680134916280861
 20
17.57149197692958
 10
-0.0380906369800383
 20
17.57361395150803
 10
-0.0081068610735544
 20
17.57453763369882
 10
-0.0000097732798541
 20
17.57458134352634
1001
REVIT
1002
{
1070
     2
1000
-2001160
1002
}
  0
LINE
  5
1C9
330
1BC
100
AcDbEntity
  8
4931.380
100
AcDbLine
 10
0.1744787128437099
 20
16.073619166517
 30
0.0
 11
0.1744787128437084
 21
16.51045295145839
 31
0.0
1001
REVIT
1002
{
1070
     2
1000
-2001160
1002
}
  0
LINE
  5
1CA
330
1BC
100
AcDbEntity
  8
4931.380
100
AcDbLine
 10
-0.1743386304710647
 20
16.51047783038427
 30
0.0
 11
-0.1743386304710653
 21
16.073619166517
 31
0.0
1001
REVIT
1002
{
1070
     2
1000
-2001160
1002
}
  0
LINE
  5
1CB
330
1BC
100
AcDbEntity
  8
4931.380
100
AcDbLine
 10
-0.7428094906335764
 20
8.863327464753474
 30
0.0
 11
-0.7428094906335767
 21
8.829673196466124
 31
0.0
1001
REVIT
1002
{
1070
     2
1000
-2001160
1002
}
  0
LINE
  5
1CC
330
1BC
100
AcDbEntity
  8
4931.380
100
AcDbLine
 10
0.742789944073682
 20
8.829673196466108
 30
0.0
 11
0.7427899440736823
 21
8.863327464753457
 31
0.0
1001
REVIT
1002
{
1070
     2
1000
-2001160
1002
}
  0
LWPOLYLINE
  5
1CD
330
1BC
100
AcDbEntity
  8
4931.380
100
AcDbPolyline
 90
        9
 70
   128
 43
0.0
 10
2.283507555032548
 20
3.440405339331846
 10
2.260941460117512
 20
3.43144035956359
 10
2.238034912099558
 20
3.423384953933779
 10
2.214824556569044
 20
3.416252009373026
 10
2.191347525143541
 20
3.410052937071016
 10
2.167641376065163
 20
3.40479765422103
 10
2.143744034115393
 20
3.400494568154568
 10
2.119693729943523
 20
3.397150562891388
 10
2.101917342499283
 20
3.395305253289681
1001
REVIT
1002
{
1070
     2
1000
-2001160
1002
}
  0
LWPOLYLINE
  5
1CE
330
1BC
100
AcDbEntity
  8
4931.380
100
AcDbPolyline
 90
        4
 70
   128
 43
0.0
 10
2.101917342499285
 20
4.604694746712834
 10
2.126055658587404
 20
4.602060131296934
 10
2.150069310080949
 20
4.598462348103605
 10
2.151558007219805
 20
4.598206863931377
1001
REVIT
1002
{
1070
     2
1000
-2001160
1002
}
  0
LINE
  5
1CF
330
1BC
100
AcDbEntity
  8
4931.380
100
AcDbLine
 10
-0.4383978135121749
 20
10.60434369911027
 30
0.0
 11
-0.4383978135121759
 21
10.50000000000001
 31
0.0
1001
REVIT
1002
{
1070
     2
1000
-2001160
1002
}
  0
LINE
  5
1D0
330
1BC
100
AcDbEntity
  8
4931.380
100
AcDbLine
 10
0.4383782669523137
 20
10.5
 30
0.0
 11
0.4383782669523147
 21
10.60434369911026
 31
0.0
1001
REVIT
1002
{
1070
     2
1000
-2001160
1002
}
  0
LINE
  5
1D1
330
1BC
100
AcDbEntity
  8
4931.380
100
AcDbLine
 10
3.12551940604773
 20
6.374860650340496
 30
0.0
 11
2.819509136545804
 21
6.374860650340498
 31
0.0
1001
REVIT
1002
{
1070
     2
1000
-2001160
1002
}
  0
LINE
  5
1D2
330
1BC
100
AcDbEntity
  8
4931.380
100
AcDbLine
 10
1.177339783491668
 20
-0.0000000000000011
 30
0.0
 11
1.177339783491668
 21
0.249999999999998
 31
0.0
1001
REVIT
1002
{
1070
     2
1000
-2001160
1002
}
  0
LINE
  5
1D3
330
1BC
100
AcDbEntity
  8
4931.380
100
AcDbLine
 10
-1.177339783491668
 20
0.249999999999998
 30
0.0
 11
-1.177339783491668
 21
-0.0000000000000011
 31
0.0
1001
REVIT
1002
{
1070
     2
1000
-2001160
1002
}
  0
LINE
  5
1D4
330
1BC
100
AcDbEntity
  8
4931.380
100
AcDbLine
 10
3.125519406047726
 20
6.374860650340488
 30
0.0
 11
3.12551940604771
 21
3.294701322040621
 31
0.0
1001
REVIT
1002
{
1070
     2
1000
-2001160
1002
}
  0
LINE
  5
1D5
330
1BC
100
AcDbEntity
  8
4931.380
100
AcDbLine
 10
2.151558007219803
 20
4.705298677961883
 30
0.0
 11
2.151558007219801
 21
4.191435851860116
 31
0.0
1001
REVIT
1002
{
1070
     2
1000
-2001160
1002
}
  0
SPLINE
  5
1D6
330
1BC
100
AcDbEntity
  8
4931.380
100
AcDbSpline
210
0.0
220
0.0
230
1.0
 70
     8
 71
     3
 72
    16
 73
    12
 74
     0
 42
0.000000001
 43
0.0000000001
 40
0.0
 40
0.0
 40
0.0
 40
0.0
 40
0.2
 40
0.4
 40
0.55
 40
0.5875
 40
0.625
 40
0.7
 40
0.775
 40
0.85
 40
1.0
 40
1.0
 40
1.0
 40
1.0
 10
2.151558007219802
 20
4.191435851860115
 30
0.0
 10
2.151530047518178
 20
4.136310788533521
 30
0.0
 10
2.155801558714199
 20
4.02264083675152
 30
0.0
 10
2.173989853886821
 20
3.865812575612166
 30
0.0
 10
2.193629581257447
 20
3.76129483426847
 30
0.0
 10
2.206270872928709
 20
3.703490863205747
 30
0.0
 10
2.214864025065545
 20
3.665797937131037
 30
0.0
 10
2.226631972048864
 20
3.62046397357708
 30
0.0
 10
2.241257472249964
 20
3.569156671746812
 30
0.0
 10
2.260209417723628
 20
3.505232459081307
 30
0.0
 10
2.274704685721727
 20
3.463027171880294
 30
0.0
 10
2.284433554361008
 20
3.437861177086451
 30
0.0
1001
REVIT
1002
{
1070
     2
1000
-2001160
1002
}
  0
LWPOLYLINE
  5
1D7
330
1BC
100
AcDbEntity
  8
4931.380
100
AcDbPolyline
 90
        2
 70
   128
 43
0.0
 10
2.28443355436101
 20
3.437861177086447
 10
2.336539480339556
 20
3.294701322040623
1001
REVIT
1002
{
1070
     2
1000
-2001160
1002
}
  0
LINE
  5
1D8
330
1BC
100
AcDbEntity
  8
4931.380
100
AcDbLine
 10
2.101917342499281
 20
3.294701322040625
 30
0.0
 11
2.101917342499286
 21
4.705298677961883
 31
0.0
1001
REVIT
1002
{
1070
     2
1000
-2001160
1002
}
  0
SPLINE
  5
1D9
330
1BC
100
AcDbEntity
  8
4931.380
100
AcDbSpline
210
0.0
220
0.0
230
1.0
 70
     8
 71
     3
 72
    73
 73
    69
 74
     0
 42
0.000000001
 43
0.0000000001
 40
0.0
 40
0.0
 40
0.0
 40
0.0
 40
0.0555555555555556
 40
0.0833333333333333
 40
0.1111111111111111
 40
0.1388888888888889
 40
0.1666666666666666
 40
0.1944444444444444
 40
0.2083333333333333
 40
0.2152777777777778
 40
0.2222222222222222
 40
0.2291666666666666
 40
0.2361111111111111
 40
0.25
 40
0.2777777777777778
 40
0.2916666666666667
 40
0.3055555555555556
 40
0.3194444444444444
 40
0.3263888888888888
 40
0.3298611111111111
 40
0.3333333333333333
 40
0.3368055555555556
 40
0.3402777777777778
 40
0.3472222222222222
 40
0.3611111111111111
 40
0.375
 40
0.3888888888888888
 40
0.4166666666666666
 40
0.4305555555555556
 40
0.4375
 40
0.4444444444444445
 40
0.4513888888888889
 40
0.4583333333333333
 40
0.4722222222222223
 40
0.5
 40
0.5277777777777778
 40
0.5416666666666668
 40
0.5486111111111112
 40
0.5555555555555556
 40
0.5625
 40
0.5694444444444445
 40
0.5833333333333334
 40
0.6111111111111112
 40
0.625
 40
0.6388888888888889
 40
0.6527777777777777
 40
0.6597222222222222
 40
0.6631944444444445
 40
0.6666666666666666
 40
0.6701388888888889
 40
0.6736111111111112
 40
0.6805555555555556
 40
0.6944444444444445
 40
0.7083333333333333
 40
0.7222222222222223
 40
0.75
 40
0.7638888888888889
 40
0.7708333333333333
 40
0.7777777777777778
 40
0.7847222222222224
 40
0.7916666666666668
 40
0.8055555555555555
 40
0.8333333333333332
 40
0.861111111111111
 40
0.8888888888888889
 40
0.9166666666666666
 40
0.9444444444444444
 40
1.0
 40
1.0
 40
1.0
 40
1.0
 10
0.7499902267200157
 20
4.705298677961888
 30
0.0
 10
0.7480235149495572
 20
4.705298677961887
 30
0.0
 10
0.7406571004411882
 20
4.698326969538317
 30
0.0
 10
0.721815189181857
 20
4.676996480965267
 30
0.0
 10
0.703548406198893
 20
4.655504774797133
 30
0.0
 10
0.679647621334981
 20
4.629128727068759
 30
0.0
 10
0.6503875305970894
 20
4.598452524942317
 30
0.0
 10
0.6233560487597434
 20
4.569680638165452
 30
0.0
 10
0.6037828554840985
 20
4.548033436182127
 30
0.0
 10
0.592512051297068
 20
4.535259387669849
 30
0.0
 10
0.5840895906237379
 20
4.52547121626036
 30
0.0
 10
0.5755344939703538
 20
4.515525863267792
 30
0.0
 10
0.5637343483331048
 20
4.502116008815814
 30
0.0
 10
0.5423167967557188
 20
4.478212866248374
 30
0.0
 10
0.5164833800331689
 20
4.449872760810832
 30
0.0
 10
0.4902368615913183
 20
4.420305377643964
 30
0.0
 10
0.4705763459796767
 20
4.397441242546753
 30
0.0
 10
0.4544036664488925
 20
4.377746100231531
 30
0.0
 10
0.4433017259929667
 20
4.363579849589976
 30
0.0
 10
0.4370252661802247
 20
4.355372494524158
 30
0.0
 10
0.4323821452554615
 20
4.349152398995793
 30
0.0
 10
0.4276969423010464
 20
4.342893924718358
 30
0.0
 10
0.421264260823244
 20
4.334533510546179
 30
0.0
 10
0.4096579121565163
 20
4.319832817569262
 30
0.0
 10
0.3922862131321157
 20
4.298615754197099
 30
0.0
 10
0.3710023181842253
 20
4.272704130357686
 30
0.0
 10
0.3431206648372724
 20
4.237404643198997
 30
0.0
 10
0.3176046569060269
 20
4.200735593392614
 30
0.0
 10
0.3002169501363284
 20
4.167005519821088
 30
0.0
 10
0.2920690248926863
 20
4.147186576008744
 30
0.0
 10
0.2870370171956293
 20
4.132056610758109
 30
0.0
 10
0.2828445195764035
 20
4.116551317822031
 30
0.0
 10
0.2779186584453642
 20
4.095321579641509
 30
0.0
 10
0.2713326130744726
 20
4.056976537118717
 30
0.0
 10
0.2675787056819247
 20
3.999853252828427
 30
0.0
 10
0.2713998221606443
 20
3.942739568222331
 30
0.0
 10
0.278016961454955
 20
3.904410828355061
 30
0.0
 10
0.2829538048164266
 20
3.883193150390778
 30
0.0
 10
0.2871504412785872
 20
3.867697866853243
 30
0.0
 10
0.2921824790686972
 20
3.852580363635382
 30
0.0
 10
0.3003262475088276
 20
3.832782654369619
 30
0.0
 10
0.3176965963826804
 20
3.799098773214818
 30
0.0
 10
0.3431763631022835
 20
3.762495506094339
 30
0.0
 10
0.3710182252333841
 20
3.72725929855039
 30
0.0
 10
0.3922737352560756
 20
3.701390386597026
 30
0.0
 10
0.4096256724761272
 20
3.680202199671499
 30
0.0
 10
0.4212216585794158
 20
3.665516873088275
 30
0.0
 10
0.4276495877433329
 20
3.657163706983629
 30
0.0
 10
0.4323319286083695
 20
3.650909804258058
 30
0.0
 10
0.4369726647867197
 20
3.644693613084742
 30
0.0
 10
0.443246201847717
 20
3.636490917464133
 30
0.0
 10
0.4543439038735868
 20
3.622331258811285
 30
0.0
 10
0.4705127229297216
 20
3.602641592703889
 30
0.0
 10
0.4901715484510044
 20
3.579778988487657
 30
0.0
 10
0.5164189119621833
 20
3.550208571155926
 30
0.0
 10
0.5422566267304032
 20
3.521860153354865
 30
0.0
 10
0.5636787994656757
 20
3.497948731239184
 30
0.0
 10
0.575481577056352
 20
3.484534210016999
 30
0.0
 10
0.5840384316737794
 20
3.474585655335824
 30
0.0
 10
0.5924629144063342
 20
3.464793968021116
 30
0.0
 10
0.6037373876508498
 20
3.452014123267331
 30
0.0
 10
0.6233187778678172
 20
3.43035505498794
 30
0.0
 10
0.6503654154402058
 20
3.401564323875941
 30
0.0
 10
0.6796437930452726
 20
3.370870397059889
 30
0.0
 10
0.7035559615082442
 20
3.344487229700831
 30
0.0
 10
0.7218263438566657
 20
3.322996080555423
 30
0.0
 10
0.7406690876001571
 20
3.30166907652221
 30
0.0
 10
0.7480298605064154
 20
3.294701322040626
 30
0.0
 10
0.7499902267200013
 20
3.294701322040629
 30
0.0
1001
REVIT
1002
{
1070
     2
1000
-2001160
1002
}
  0
LINE
  5
1DA
330
1BC
100
AcDbEntity
  8
4931.380
100
AcDbLine
 10
2.819509136545777
 20
4.201730297215813
 30
0.0
 11
2.819509136545801
 21
6.374860650340493
 31
0.0
1001
REVIT
1002
{
1070
     2
1000
-2001160
1002
}
  0
LINE
  5
1DB
330
1BC
100
AcDbEntity
  8
4931.380
100
AcDbLine
 10
1.177339783491667
 20
0.0
 30
0.0
 11
-1.177339783491667
 21
0.0
 31
0.0
1001
REVIT
1002
{
1070
     2
1000
-2001160
1002
}
  0
LINE
  5
1DC
330
1BC
100
AcDbEntity
  8
4931.380
100
AcDbLine
 10
-0.7500097732799408
 20
8.863327464753451
 30
0.0
 11
0.7499902267200591
 21
8.86332746475346
 31
0.0
1001
REVIT
1002
{
1070
     2
1000
-2001160
1002
}
  0
LINE
  5
1DD
330
1BC
100
AcDbEntity
  8
4931.380
100
AcDbLine
 10
0.7499902267200587
 20
8.829673196466087
 30
0.0
 11
-0.7500097732799411
 21
8.829673196466128
 31
0.0
1001
REVIT
1002
{
1070
     2
1000
-2001160
1002
}
  0
SPLINE
  5
1DE
330
1BC
100
AcDbEntity
  8
4931.380
100
AcDbSpline
210
0.0
220
0.0
230
1.0
 70
     8
 71
     3
 72
    13
 73
     9
 74
     0
 42
0.000000001
 43
0.0000000001
 40
-1.0
 40
-1.0
 40
-1.0
 40
-1.0
 40
-0.8571428571428571
 40
-0.7142857142857144
 40
-0.5714285714285714
 40
-0.4285714285714286
 40
-0.2857142857142857
 40
0.0
 40
0.0
 40
0.0
 40
0.0
 10
-0.0000097732798639
 20
16.66157387348673
 30
0.0
 10
0.0140727915385819
 20
16.66155804025694
 30
0.0
 10
0.0422342702784685
 20
16.6590618325102
 30
0.0
 10
0.0823349120453576
 20
16.64800439107247
 30
0.0
 10
0.1182833322760628
 20
16.63050919634375
 30
0.0
 10
0.1482588016713927
 20
16.60783659043493
 30
0.0
 10
0.178263041783637
 20
16.57284473383162
 30
0.0
 10
0.1876805616108884
 20
16.54403950676898
 30
0.0
 10
0.1876805616108892
 20
16.52593530939792
 30
0.0
1001
REVIT
1002
{
1070
     2
1000
-2001160
1002
}
  0
LINE
  5
1DF
330
1BC
100
AcDbEntity
  8
4931.380
100
AcDbLine
 10
0.1876805616108845
 20
16.52593530939791
 30
0.0
 11
0.1876805616108761
 21
15.69588409505664
 31
0.0
1001
REVIT
1002
{
1070
     2
1000
-2001160
1002
}
  0
SPLINE
  5
1E0
330
1BC
100
AcDbEntity
  8
4931.380
100
AcDbSpline
210
0.0
220
0.0
230
1.0
 70
     8
 71
     3
 72
    13
 73
     9
 74
     0
 42
0.000000001
 43
0.0000000001
 40
-1.0
 40
-1.0
 40
-1.0
 40
-1.0
 40
-0.7142857142857144
 40
-0.5714285714285714
 40
-0.4285714285714286
 40
-0.2857142857142857
 40
-0.1428571428571428
 40
0.0
 40
0.0
 40
0.0
 40
0.0
 10
0.1876805616108894
 20
15.69588409505663
 30
0.0
 10
0.1876805616108899
 20
15.67291106733237
 30
0.0
 10
0.1780831571798084
 20
15.63971814626627
 30
0.0
 10
0.1479852149082509
 20
15.60399670347797
 30
0.0
 10
0.1180374175067971
 20
15.58234304604741
 30
0.0
 10
0.0821747093345829
 20
15.56646401319984
 30
0.0
 10
0.0421613536858589
 20
15.55678099776589
 30
0.0
 10
0.014051380364869
 20
15.55458105859761
 30
0.0
 10
-0.0000097732798731
 20
15.55459887692836
 30
0.0
1001
REVIT
1002
{
1070
     2
1000
-2001160
1002
}
  0
SPLINE
  5
1E1
330
1BC
100
AcDbEntity
  8
4931.380
100
AcDbSpline
210
0.0
220
0.0
230
1.0
 70
     8
 71
     3
 72
    17
 73
    13
 74
     0
 42
0.000000001
 43
0.0000000001
 40
-1.0
 40
-1.0
 40
-1.0
 40
-1.0
 40
-0.861111111111111
 40
-0.7916666666666668
 40
-0.7569444444444445
 40
-0.7222222222222223
 40
-0.6875
 40
-0.6527777777777777
 40
-0.5833333333333333
 40
-0.5138888888888889
 40
-0.4791666666666666
 40
-0.4754063680784073
 40
-0.4754063680784073
 40
-0.4754063680784073
 40
-0.4754063680784073
 10
-0.000009773279886
 20
14.43235492528673
 30
0.0
 10
0.1133130357009184
 20
14.43206575996768
 30
0.0
 10
0.2697985862090504
 20
14.42323545257702
 30
0.0
 10
0.438062104675652
 20
14.39686533833241
 30
0.0
 10
0.5190709494296688
 20
14.3788370677684
 30
0.0
 10
0.5755621434266136
 20
14.36316076319561
 30
0.0
 10
0.6253483145646123
 20
14.34602900217092
 30
0.0
 10
0.6798057583657226
 20
14.32223660429856
 30
0.0
 10
0.7305640619002558
 20
14.28833040090714
 30
0.0
 10
0.7508191799705801
 20
14.25396628689865
 30
0.0
 10
0.7498593665366444
 20
14.23160423210081
 30
0.0
 10
0.7477783014507545
 20
14.22379165308395
 30
0.0
 10
0.7475581398667611
 20
14.22302965365089
 30
0.0
1001
REVIT
1002
{
1070
     2
1000
-2001160
1002
}
  0
SPLINE
  5
1E2
330
1BC
100
AcDbEntity
  8
4931.380
100
AcDbSpline
210
0.0
220
0.0
230
1.0
 70
     8
 71
     3
 72
    17
 73
    13
 74
     0
 42
0.000000001
 43
0.0000000001
 40
-0.4912467932311486
 40
-0.4912467932311486
 40
-0.4912467932311486
 40
-0.4912467932311486
 40
-0.4791666666666666
 40
-0.4444444444444445
 40
-0.3888888888888888
 40
-0.3333333333333333
 40
-0.2777777777777778
 40
-0.2222222222222222
 40
-0.1666666666666666
 40
-0.1111111111111111
 40
-0.0555555555555556
 40
0.0
 40
0.0
 40
0.0
 40
0.0
 10
0.7499902267201137
 20
14.2127263319358
 30
0.0
 10
0.7496443128304843
 20
14.21520520762382
 30
0.0
 10
0.7475637041954711
 20
14.22478679051203
 30
0.0
 10
0.738334191570033
 20
14.2452225506691
 30
0.0
 10
0.7078725561355151
 20
14.27407224175451
 30
0.0
 10
0.6530268240057481
 20
14.30496974731164
 30
0.0
 10
0.5771541127797909
 20
14.33270577897783
 30
0.0
 10
0.4848105692464279
 20
14.35687375336305
 30
0.0
 10
0.3769276470061099
 20
14.37622984168402
 30
0.0
 10
0.2571480786754896
 20
14.39083693961362
 30
0.0
 10
0.1335763460092849
 20
14.39931240397128
 30
0.0
 10
0.0453129644025547
 20
14.40140915819458
 30
0.0
 10
-0.0000097732798863
 20
14.40152462977194
 30
0.0
1001
REVIT
1002
{
1070
     2
1000
-2001160
1002
}
  0
SPLINE
  5
1E3
330
1BC
100
AcDbEntity
  8
4931.380
100
AcDbSpline
210
0.0
220
0.0
230
1.0
 70
     8
 71
     3
 72
    13
 73
     9
 74
     0
 42
0.000000001
 43
0.0000000001
 40
-1.0
 40
-1.0
 40
-1.0
 40
-1.0
 40
-0.8571428571428571
 40
-0.5714285714285714
 40
-0.4285714285714286
 40
-0.2857142857142857
 40
-0.1428571428571428
 40
0.0
 40
0.0
 40
0.0
 40
0.0
 10
0.1744787128437029
 20
16.51045295145841
 30
0.0
 10
0.1744787128437025
 20
16.51892847275232
 30
0.0
 10
0.1701989725080327
 20
16.54503142789572
 30
0.0
 10
0.1471311525305213
 20
16.57970404224538
 30
0.0
 10
0.1099438083046786
 20
16.60767752463417
 30
0.0
 10
0.0765317001272621
 20
16.62383707407026
 30
0.0
 10
0.039253602937854
 20
16.63403531309476
 30
0.0
 10
0.0130787878250656
 20
16.63633274609815
 30
0.0
 10
-0.0000097732798627
 20
16.63634255278143
 30
0.0
1001
REVIT
1002
{
1070
     2
1000
-2001160
1002
}
  0
SPLINE
  5
1E4
330
1BC
100
AcDbEntity
  8
4931.380
100
AcDbSpline
210
0.0
220
0.0
230
1.0
 70
     8
 71
     3
 72
    27
 73
    23
 74
     0
 42
0.000000001
 43
0.0000000001
 40
0.0
 40
0.0
 40
0.0
 40
0.0
 40
0.1111111111111111
 40
0.2222222222222222
 40
0.25
 40
0.2777777777777778
 40
0.3333333333333333
 40
0.3611111111111111
 40
0.3888888888888888
 40
0.4444444444444445
 40
0.4791666666666666
 40
0.5138888888888889
 40
0.5486111111111111
 40
0.5833333333333333
 40
0.6180555555555555
 40
0.6527777777777777
 40
0.6875
 40
0.7222222222222223
 40
0.7569444444444445
 40
0.7916666666666668
 40
0.861111111111111
 40
1.0
 40
1.0
 40
1.0
 40
1.0
 10
-0.0000097732798674
 20
16.2489635901584
 30
0.0
 10
0.015300571218937
 20
16.24894897754117
 30
0.0
 10
0.0442667967426524
 20
16.24519363854382
 30
0.0
 10
0.0751337245434555
 20
16.23254374745329
 30
0.0
 10
0.0923532094432924
 20
16.22120880361868
 30
0.0
 10
0.1033669377860481
 20
16.21276059116798
 30
0.0
 10
0.1127945465071632
 20
16.20346499184548
 30
0.0
 10
0.1202664057765415
 20
16.19345296775341
 30
0.0
 10
0.126802281284544
 20
16.18273370758238
 30
0.0
 10
0.1315991220092463
 20
16.17110147918027
 30
0.0
 10
0.1337629875369246
 20
16.15875573979143
 30
0.0
 10
0.1339458838139562
 20
16.14819181874256
 30
0.0
 10
0.1324708783403853
 20
16.13807433761625
 30
0.0
 10
0.1292397233271884
 20
16.12861615062373
 30
0.0
 10
0.1241736760231321
 20
16.11931836800049
 30
0.0
 10
0.1176859854463917
 20
16.11069194367027
 30
0.0
 10
0.1100724413932204
 20
16.10305251675151
 30
0.0
 10
0.1007896597490988
 20
16.09599523910532
 30
0.0
 10
0.0903932007968903
 20
16.0897106896506
 30
0.0
 10
0.0758228402078439
 20
16.08260398503865
 30
0.0
 10
0.0462001300582794
 20
16.0729372485147
 30
0.0
 10
0.0192247823561063
 20
16.06974911468586
 30
0.0
 10
-0.0000097732798692
 20
16.06971550856725
 30
0.0
1001
REVIT
1002
{
1070
     2
1000
-2001160
1002
}
  0
SPLINE
  5
1E5
330
1BC
100
AcDbEntity
  8
4931.380
100
AcDbSpline
210
0.0
220
0.0
230
1.0
 70
     8
 71
     3
 72
    14
 73
    10
 74
     0
 42
0.000000001
 43
0.0000000001
 40
-1.0
 40
-1.0
 40
-1.0
 40
-1.0
 40
-0.8571428571428572
 40
-0.7142857142857144
 40
-0.5714285714285714
 40
-0.4285714285714286
 40
-0.2857142857142857
 40
-0.1428571428571428
 40
0.0
 40
0.0
 40
0.0
 40
0.0
 10
-0.0000097732798705
 20
16.02090897864215
 30
0.0
 10
0.0131207983305427
 20
16.02088505190933
 30
0.0
 10
0.0393443711795226
 20
16.02272729374249
 30
0.0
 10
0.076604300850804
 20
16.03081001075295
 30
0.0
 10
0.1098757186496409
 20
16.04402754920112
 30
0.0
 10
0.1375989624655379
 20
16.06199118767317
 30
0.0
 10
0.1584882569124379
 20
16.08421907007411
 30
0.0
 10
0.1715189027212261
 20
16.11000616941381
 30
0.0
 10
0.1744787128437104
 20
16.12894712966397
 30
0.0
 10
0.1744787128437102
 20
16.13857785067583
 30
0.0
1001
REVIT
1002
{
1070
     2
1000
-2001160
1002
}
  0
SPLINE
  5
1E6
330
1BC
100
AcDbEntity
  8
4931.380
100
AcDbSpline
210
0.0
220
0.0
230
1.0
 70
     8
 71
     3
 72
    18
 73
    14
 74
     0
 42
0.000000001
 43
0.0000000001
 40
-0.5244043755082016
 40
-0.5244043755082016
 40
-0.5244043755082016
 40
-0.5244043755082016
 40
-0.5138888888888889
 40
-0.4791666666666666
 40
-0.4444444444444445
 40
-0.3888888888888888
 40
-0.3333333333333333
 40
-0.2777777777777778
 40
-0.2222222222222222
 40
-0.1666666666666666
 40
-0.1111111111111111
 40
-0.0555555555555556
 40
0.0
 40
0.0
 40
0.0
 40
0.0
 10
-0.7476107613213855
 20
14.22316692219687
 30
0.0
 10
-0.7482281443580723
 20
14.22529452812117
 30
0.0
 10
-0.7503072618336489
 20
14.23448502553648
 30
0.0
 10
-0.7496273874689093
 20
14.25105287665255
 30
0.0
 10
-0.7383610367577739
 20
14.27601242620259
 30
0.0
 10
-0.7079092060383875
 20
14.30486675462542
 30
0.0
 10
-0.6530746582328577
 20
14.33576991604439
 30
0.0
 10
-0.5772098281747942
 20
14.36351288032076
 30
0.0
 10
-0.4848711461273301
 20
14.38768768539444
 30
0.0
 10
-0.3769848889037084
 20
14.40705029443868
 30
0.0
 10
-0.2571974029972464
 20
14.42166296618756
 30
0.0
 10
-0.1336135289255375
 20
14.43014149338853
 30
0.0
 10
-0.0453388968722076
 20
14.43223925915911
 30
0.0
 10
-0.000009773279886
 20
14.43235492528673
 30
0.0
1001
REVIT
1002
{
1070
     2
1000
-2001160
1002
}
  0
SPLINE
  5
1E7
330
1BC
100
AcDbEntity
  8
4931.380
100
AcDbSpline
210
0.0
220
0.0
230
1.0
 70
     8
 71
     3
 72
    13
 73
     9
 74
     0
 42
0.000000001
 43
0.0000000001
 40
-1.0
 40
-1.0
 40
-1.0
 40
-1.0
 40
-0.8571428571428571
 40
-0.7142857142857144
 40
-0.5714285714285714
 40
-0.4285714285714286
 40
-0.2857142857142857
 40
0.0
 40
0.0
 40
0.0
 40
0.0
 10
-0.0000097732798731
 20
15.55459887692836
 30
0.0
 10
-0.0140709269245831
 20
15.55458105859766
 30
0.0
 10
-0.0421809002454961
 20
15.55678099776601
 30
0.0
 10
-0.0821942558940776
 20
15.56646401320003
 30
0.0
 10
-0.1180569640661562
 20
15.58234304604767
 30
0.0
 10
-0.1480047614674802
 20
15.60399670347822
 30
0.0
 10
-0.1781027037388983
 20
15.6397181462665
 30
0.0
 10
-0.1877001081699383
 20
15.67291106733254
 30
0.0
 10
-0.1877001081699386
 20
15.69588409505674
 30
0.0
1001
REVIT
1002
{
1070
     2
1000
-2001160
1002
}
  0
LINE
  5
1E8
330
1BC
100
AcDbEntity
  8
4931.380
100
AcDbLine
 10
-0.1877001081699384
 20
15.6958840950567
 30
0.0
 11
-0.1877001081699299
 21
16.52593530939799
 31
0.0
1001
REVIT
1002
{
1070
     2
1000
-2001160
1002
}
  0
SPLINE
  5
1E9
330
1BC
100
AcDbEntity
  8
4931.380
100
AcDbSpline
210
0.0
220
0.0
230
1.0
 70
     8
 71
     3
 72
    14
 73
    10
 74
     0
 42
0.000000001
 43
0.0000000001
 40
-1.0
 40
-1.0
 40
-1.0
 40
-1.0
 40
-0.8571428571428571
 40
-0.7142857142857143
 40
-0.5714285714285714
 40
-0.4285714285714286
 40
-0.2857142857142857
 40
-0.1428571428571428
 40
0.0
 40
0.0
 40
0.0
 40
0.0
 10
-0.1877001081699387
 20
16.52593530939803
 30
0.0
 10
-0.1877001081699386
 20
16.53498740808355
 30
0.0
 10
-0.1846197238083673
 20
16.55361228893521
 30
0.0
 10
-0.1707657758447346
 20
16.58160045785516
 30
0.0
 10
-0.1482825691963276
 20
16.60783451113194
 30
0.0
 10
-0.1183017474425464
 20
16.63050975368255
 30
0.0
 10
-0.0823547632106165
 20
16.64800424101958
 30
0.0
 10
-0.042253729807868
 20
16.65906187538233
 30
0.0
 10
-0.0140923380982777
 20
16.66155804025691
 30
0.0
 10
-0.0000097732798639
 20
16.66157387348673
 30
0.0
1001
REVIT
1002
{
1070
     2
1000
-2001160
1002
}
  0
SPLINE
  5
1EA
330
1BC
100
AcDbEntity
  8
4931.380
100
AcDbSpline
210
0.0
220
0.0
230
1.0
 70
     8
 71
     3
 72
    16
 73
    12
 74
     0
 42
0.000000001
 43
0.0000000001
 40
-1.0
 40
-1.0
 40
-1.0
 40
-1.0
 40
-0.861111111111111
 40
-0.7916666666666668
 40
-0.7569444444444445
 40
-0.7222222222222223
 40
-0.6875
 40
-0.6527777777777777
 40
-0.5833333333333333
 40
-0.5138888888888889
 40
-0.5068734707422218
 40
-0.5068734707422218
 40
-0.5068734707422218
 40
-0.5068734707422218
 10
-0.0000097732798863
 20
14.40152462977194
 30
0.0
 10
-0.1133166174859894
 20
14.40123595082855
 30
0.0
 10
-0.2697856820013266
 20
14.39240884657417
 30
0.0
 10
-0.4380415098010414
 20
14.36604857404704
 30
0.0
 10
-0.5190510473291409
 20
14.34802556466111
 30
0.0
 10
-0.5755457593729077
 20
14.33235368655974
 30
0.0
 10
-0.6253370389092022
 20
14.315226305686
 30
0.0
 10
-0.6798010944709573
 20
14.29143906307756
 30
0.0
 10
-0.7305735077395096
 20
14.25753869349794
 30
0.0
 10
-0.7476023043658952
 20
14.22866286255026
 30
0.0
 10
-0.7498642506008401
 20
14.21339665732387
 30
0.0
 10
-0.7500097732798862
 20
14.21199053086137
 30
0.0
1001
REVIT
1002
{
1070
     2
1000
-2001160
1002
}
  0
SPLINE
  5
1EB
330
1BC
100
AcDbEntity
  8
4931.380
100
AcDbSpline
210
0.0
220
0.0
230
1.0
 70
     8
 71
     3
 72
    13
 73
     9
 74
     0
 42
0.000000001
 43
0.0000000001
 40
-1.0
 40
-1.0
 40
-1.0
 40
-1.0
 40
-0.8571428571428571
 40
-0.7142857142857144
 40
-0.5714285714285714
 40
-0.4285714285714286
 40
-0.2857142857142857
 40
0.0
 40
0.0
 40
0.0
 40
0.0
 10
-0.0000097732798627
 20
16.63634255278143
 30
0.0
 10
-0.0130907925492456
 20
16.63632517141499
 30
0.0
 10
-0.0392481900454836
 20
16.63401530339561
 30
0.0
 10
-0.076493252904654
 20
16.62380790355616
 30
0.0
 10
-0.1098797730851905
 20
16.60764788432125
 30
0.0
 10
-0.1377166489485213
 20
16.58667774894159
 30
0.0
 10
-0.1655803389178918
 20
16.55424756867736
 30
0.0
 10
-0.1743386304710645
 20
16.52741945699431
 30
0.0
 10
-0.1743386304710643
 20
16.51047783038428
 30
0.0
1001
REVIT
1002
{
1070
     2
1000
-2001160
1002
}
  0
SPLINE
  5
1EC
330
1BC
100
AcDbEntity
  8
4931.380
100
AcDbSpline
210
0.0
220
0.0
230
1.0
 70
     8
 71
     3
 72
    14
 73
    10
 74
     0
 42
0.000000001
 43
0.0000000001
 40
-1.0
 40
-1.0
 40
-1.0
 40
-1.0
 40
-0.8571428571428571
 40
-0.7142857142857144
 40
-0.5714285714285714
 40
-0.4285714285714286
 40
-0.2857142857142857
 40
-0.1428571428571428
 40
0.0
 40
0.0
 40
0.0
 40
0.0
 10
-0.1743386304710647
 20
16.1386024079874
 30
0.0
 10
-0.1743386304710647
 20
16.12897712332998
 30
0.0
 10
-0.1713821837779188
 20
16.11004641609816
 30
0.0
 10
-0.1583665415863487
 20
16.08427006145481
 30
0.0
 10
-0.1375002731659808
 20
16.06204635876936
 30
0.0
 10
-0.1098058282559873
 20
16.04407997291352
 30
0.0
 10
-0.076566267322469
 20
16.03085251144683
 30
0.0
 10
-0.0393379634508589
 20
16.0227526383563
 30
0.0
 10
-0.0131325820171936
 20
16.02089419798571
 30
0.0
 10
-0.0000097732798705
 20
16.02090897864214
 30
0.0
1001
REVIT
1002
{
1070
     2
1000
-2001160
1002
}
  0
SPLINE
  5
1ED
330
1BC
100
AcDbEntity
  8
4931.380
100
AcDbSpline
210
0.0
220
0.0
230
1.0
 70
     8
 71
     3
 72
    27
 73
    23
 74
     0
 42
0.000000001
 43
0.0000000001
 40
0.0
 40
0.0
 40
0.0
 40
0.0
 40
0.1111111111111111
 40
0.2222222222222222
 40
0.25
 40
0.2777777777777778
 40
0.3333333333333333
 40
0.3611111111111111
 40
0.3888888888888888
 40
0.4444444444444445
 40
0.4791666666666666
 40
0.5138888888888889
 40
0.5486111111111111
 40
0.5833333333333333
 40
0.6180555555555555
 40
0.6527777777777777
 40
0.6875
 40
0.7222222222222223
 40
0.7569444444444445
 40
0.7916666666666668
 40
0.861111111111111
 40
1.0
 40
1.0
 40
1.0
 40
1.0
 10
-0.0000097732798692
 20
16.06971550856725
 30
0.0
 10
-0.0153974177886505
 20
16.06974239346214
 30
0.0
 10
-0.0444731959938562
 20
16.07246948923836
 30
0.0
 10
-0.0753097440196049
 20
16.08196603352969
 30
0.0
 10
-0.0925105403530862
 20
16.09095120124671
 30
0.0
 10
-0.1035044059858264
 20
16.09774927149473
 30
0.0
 10
-0.1129101177768401
 20
16.10543862019693
 30
0.0
 10
-0.1203628933376911
 20
16.11408566493437
 30
0.0
 10
-0.1268785912409432
 20
16.12355259021531
 30
0.0
 10
-0.131653895076599
 20
16.13420232593834
 30
0.0
 10
-0.1337944372343361
 20
16.14610408959484
 30
0.0
 10
-0.1339574914526309
 20
16.1566322748625
 30
0.0
 10
-0.1324628976968189
 20
16.16705601606835
 30
0.0
 10
-0.1292126802456842
 20
16.17718193414344
 30
0.0
 10
-0.1241275685739589
 20
16.18749168413176
 30
0.0
 10
-0.1176212886550619
 20
16.19734427526192
 30
0.0
 10
-0.1099894539343
 20
16.20633827130853
 30
0.0
 10
-0.1006860889419229
 20
16.21492919908808
 30
0.0
 10
-0.0902714440477873
 20
16.22275710458715
 30
0.0
 10
-0.0756882143473095
 20
16.23178045152043
 30
0.0
 10
-0.0460343302238063
 20
16.24454247565954
 30
0.0
 10
-0.019147703903374
 20
16.24894532438687
 30
0.0
 10
-0.0000097732798674
 20
16.2489635901584
 30
0.0
1001
REVIT
1002
{
1070
     2
1000
-2001160
1002
}
  0
ELLIPSE
  5
1EE
330
1BC
100
AcDbEntity
  8
4931.380
100
AcDbEllipse
 10
-0.0000097732799229
 20
10.60434369911025
 30
0.0
 11
-0.75
 21
0.0000000000000077
 31
0.0
210
0.0
220
0.0
230
1.0
 40
0.2588190451025222
 41
4.712388980384687
 42
7.361442046811982
1001
REVIT
1002
{
1070
     2
1000
-2001160
1002
}
  0
ELLIPSE
  5
1EF
330
1BC
100
AcDbEntity
  8
4931.380
100
AcDbEllipse
 10
-0.0000097732799229
 20
10.60434369911025
 30
0.0
 11
0.7500000000000005
 21
0.0
 31
0.0
210
0.0
220
0.0
230
1.0
 40
0.2588190451025227
 41
5.204928567547241
 42
7.853981633974477
1001
REVIT
1002
{
1070
     2
1000
-2001160
1002
}
  0
ELLIPSE
  5
1F0
330
1BC
100
AcDbEntity
  8
4931.380
100
AcDbEllipse
 10
-0.0000097732799299
 20
10.60434369911025
 30
0.0
 11
-0.4383880402322443
 21
0.0000000000000054
 31
0.0
210
0.0
220
0.0
230
1.0
 40
0.2588190451025202
 41
4.712388980384686
 42
6.283185307179588
1001
REVIT
1002
{
1070
     2
1000
-2001160
1002
}
  0
ELLIPSE
  5
1F1
330
1BC
100
AcDbEntity
  8
4931.380
100
AcDbEllipse
 10
-0.0000097732799299
 20
10.60434369911025
 30
0.0
 11
-0.4383880402322443
 21
0.0000000000000035
 31
0.0
210
0.0
220
0.0
230
1.0
 40
0.2588190451025202
 41
3.141592653589788
 42
4.712388980384684
1001
REVIT
1002
{
1070
     2
1000
-2001160
1002
}
  0
ELLIPSE
  5
1F2
330
1BC
100
AcDbEntity
  8
4931.380
100
AcDbEllipse
 10
-0.0000097732795248
 20
16.50234522542683
 30
0.0
 11
0.1876903348904139
 21
0.0
 31
0.0
210
0.0
220
0.0
230
1.0
 40
0.7660444431189886
 41
0.0
 42
3.141592653589793
1001
REVIT
1002
{
1070
     2
1000
-2001160
1002
}
  0
ELLIPSE
  5
1F3
330
1BC
100
AcDbEntity
  8
4931.380
100
AcDbEllipse
 10
0.0000700411863225
 20
16.07361916651698
 30
0.0
 11
0.1744086716573873
 21
0.0
 31
0.0
210
0.0
220
0.0
230
1.0
 40
0.7660444431189756
 41
3.141592653589793
 42
6.283185307179612
1001
REVIT
1002
{
1070
     2
1000
-2001160
1002
}
  0
ELLIPSE
  5
1F4
330
1BC
100
AcDbEntity
  8
4931.380
100
AcDbEllipse
 10
-0.0000097732798918
 20
14.23862870958197
 30
0.0
 11
-0.7276426452533208
 21
0.0000000000000072
 31
0.0
210
0.0
220
0.0
230
1.0
 40
0.2588190451025208
 41
4.712388980384684
 42
6.179329674224085
1001
REVIT
1002
{
1070
     2
1000
-2001160
1002
}
  0
ELLIPSE
  5
1F5
330
1BC
100
AcDbEntity
  8
4931.380
100
AcDbEllipse
 10
-0.0000097732798918
 20
14.23862870958197
 30
0.0
 11
0.7276426452533208
 21
0.0
 31
0.0
210
0.0
220
0.0
230
1.0
 40
0.2588190451025174
 41
0.1037978612634888
 42
1.570796326794887
1001
REVIT
1002
{
1070
     2
1000
-2001160
1002
}
  0
ELLIPSE
  5
1F6
330
1BC
100
AcDbEntity
  8
4931.380
100
AcDbEllipse
 10
-0.0000097732799309
 20
10.49999999999999
 30
0.0
 11
-0.4383880402322443
 21
0.0000000000000039
 31
0.0
210
0.0
220
0.0
230
1.0
 40
0.2588190451025202
 41
4.712388980384691
 42
7.853981633974481
1001
REVIT
1002
{
1070
     2
1000
-2001160
1002
}
  0
ELLIPSE
  5
1F7
330
1BC
100
AcDbEntity
  8
4931.380
100
AcDbEllipse
 10
-0.0000097732799309
 20
10.49999999999999
 30
0.0
 11
-0.4383880402322443
 21
0.0000000000000035
 31
0.0
210
0.0
220
0.0
230
1.0
 40
0.2588190451025202
 41
1.570796326794894
 42
4.712388980384684
1001
REVIT
1002
{
1070
     2
1000
-2001160
1002
}
  0
LINE
  5
1F8
330
1BC
100
AcDbEntity
  8
4931.380
100
AcDbLine
 10
-1.177339783491667
 20
0.25
 30
0.0
 11
1.177339783491667
 21
0.25
 31
0.0
1001
REVIT
1002
{
1070
     2
1000
-2001160
1002
}
  0
ENDBLK
  5
1F9
330
1BC
100
AcDbEntity
  8
0
100
AcDbBlockEnd
  0
ENDSEC
  0
SECTION
  2
ENTITIES
  0
INSERT
  5
16D
330
70
100
AcDbEntity
  8
0
100
AcDbBlockReference
  2
AMSTD_Beale_4931.380_Side View
 10
1.169970332252262
 20
-0.7013870872718135
 30
0.0
  0
INSERT
  5
1BB
330
70
100
AcDbEntity
  8
0
100
AcDbBlockReference
  2
AMSTD_Beale_4931.380_Plan View
 10
14.90487134508219
 20
32.54839909027311
 30
0.0
  0
INSERT
  5
201
330
70
100
AcDbEntity
  8
0
100
AcDbBlockReference
  2
AMSTD_Beale_4931.380_Front View
 10
14.90487134508218
 20
-0.7013870872718141
 30
0.0
  0
ENDSEC
  0
SECTION
  2
OBJECTS
  0
DICTIONARY
  5
C
330
0
100
AcDbDictionary
281
     1
  3
ACAD_CIP_PREVIOUS_PRODUCT_INFO
350
79
  3
ACAD_COLOR
350
63
  3
ACAD_DETAILVIEWSTYLE
350
6A
  3
ACAD_GROUP
350
D
  3
ACAD_IMAGE_VARS
350
7A
  3
ACAD_LAYOUT
350
62
  3
ACAD_MATERIAL
350
10
  3
ACAD_MLEADERSTYLE
350
66
  3
ACAD_MLINESTYLE
350
5F
  3
ACAD_PLOTSETTINGS
350
61
  3
ACAD_PLOTSTYLENAME
350
E
  3
ACAD_SCALELIST
350
42
  3
ACAD_SECTIONVIEWSTYLE
350
68
  3
ACAD_TABLESTYLE
350
64
  3
ACAD_VISUALSTYLE
350
29
  3
ACDB_RECOMPOSE_DATA
350
209
  3
AcDbVariableDictionary
350
D9
  3
AEC_PROPERTY_SET_DEFS
350
1B9
  3
REVIT_DICTIONARY
350
CF
  0
DICTIONARY
  5
D2
330
70
100
AcDbDictionary
280
     1
281
     1
  3
ACAD_SORTENTS
360
D3
  0
XRECORD
  5
79
102
{ACAD_REACTORS
330
C
102
}
330
C
100
AcDbXrecord
280
     1
300
ARCHDESK
300
2014
300
86137ARCHDESK_2014_0F
  0
DICTIONARY
  5
63
102
{ACAD_REACTORS
330
C
102
}
330
C
100
AcDbDictionary
281
     1
  0
DICTIONARY
  5
6A
102
{ACAD_REACTORS
330
C
102
}
330
C
100
AcDbDictionary
281
     1
  3
Imperial24
350
6B
  0
DICTIONARY
  5
D
102
{ACAD_REACTORS
330
C
102
}
330
C
100
AcDbDictionary
281
     1
  0
RASTERVARIABLES
  5
7A
102
{ACAD_REACTORS
330
C
102
}
330
C
100
AcDbRasterVariables
 90
        0
 70
     0
 71
     1
 72
     5
  0
DICTIONARY
  5
62
102
{ACAD_REACTORS
330
C
102
}
330
C
100
AcDbDictionary
281
     1
  3
Layout1
350
6F
  3
Layout2
350
77
  3
Model
350
73
  0
DICTIONARY
  5
10
102
{ACAD_REACTORS
330
C
102
}
330
C
100
AcDbDictionary
281
     1
  3
ByBlock
350
19
  3
ByLayer
350
11
  3
Global
350
21
  0
DICTIONARY
  5
66
102
{ACAD_REACTORS
330
C
102
}
330
C
100
AcDbDictionary
281
     1
  3
Standard
350
67
  0
DICTIONARY
  5
5F
102
{ACAD_REACTORS
330
C
102
}
330
C
100
AcDbDictionary
281
     1
  3
Standard
350
60
  0
DICTIONARY
  5
61
102
{ACAD_REACTORS
330
C
102
}
330
C
100
AcDbDictionary
281
     1
  0
ACDBDICTIONARYWDFLT
  5
E
102
{ACAD_REACTORS
330
C
102
}
330
C
100
AcDbDictionary
281
     1
  3
Normal
350
F
100
AcDbDictionaryWithDefault
340
F
  0
DICTIONARY
  5
42
102
{ACAD_REACTORS
330
C
102
}
330
C
100
AcDbDictionary
281
     1
  3
A0
350
43
  3
A1
350
44
  3
A2
350
45
  3
A3
350
46
  3
A4
350
47
  3
A5
350
48
  3
A6
350
49
  3
A7
350
4A
  3
A8
350
4B
  3
A9
350
4C
  3
B0
350
4D
  3
B1
350
4E
  3
B2
350
4F
  3
B3
350
50
  3
B4
350
51
  3
B5
350
52
  3
B6
350
53
  0
DICTIONARY
  5
68
102
{ACAD_REACTORS
330
C
102
}
330
C
100
AcDbDictionary
281
     1
  3
Imperial24
350
69
  0
DICTIONARY
  5
64
102
{ACAD_REACTORS
330
C
102
}
330
C
100
AcDbDictionary
281
     1
  3
Standard
350
65
  0
DICTIONARY
  5
29
102
{ACAD_REACTORS
330
C
102
}
330
C
100
AcDbDictionary
281
     1
  3
2dWireframe
350
2F
  3
Basic
350
2E
  3
Brighten
350
35
  3
ColorChange
350
39
  3
Conceptual
350
32
  3
Dim
350
34
  3
EdgeColorOff
350
41
  3
Facepattern
350
38
  3
Flat
350
2A
  3
FlatWithEdges
350
2B
  3
Gouraud
350
2C
  3
GouraudWithEdges
350
2D
  3
Hidden
350
31
  3
JitterOff
350
3F
  3
Linepattern
350
37
  3
OverhangOff
350
40
  3
Realistic
350
33
  3
Shaded
350
3E
  3
Shaded with edges
350
3D
  3
Shades of Gray
350
3A
  3
Sketchy
350
3B
  3
Thicken
350
36
  3
Wireframe
350
30
  3
X-Ray
350
3C
  0
XRECORD
  5
209
102
{ACAD_REACTORS
330
C
102
}
330
C
100
AcDbXrecord
280
     1
 90
        1
330
65
330
69
330
6B
  0
DICTIONARY
  5
D9
102
{ACAD_REACTORS
330
C
102
}
330
C
100
AcDbDictionary
281
     1
  3
CANNOSCALE
350
DE
  3
CMLEADERSTYLE
350
DB
  3
CTABLESTYLE
350
DA
  3
CVIEWDETAILSTYLE
350
DC
  3
CVIEWSECTIONSTYLE
350
DD
  0
DICTIONARY
  5
1B9
102
{ACAD_REACTORS
330
C
102
}
330
C
100
AcDbDictionary
281
     1
  0
DICTIONARY
  5
CF
102
{ACAD_REACTORS
330
C
102
}
330
C
100
AcDbDictionary
281
     1
  3
DRAWING_TOOL
350
D1
  3
REVIT_CATEGORY_MAPPING
350
D0
  0
SORTENTSTABLE
  5
D3
102
{ACAD_REACTORS
330
D2
102
}
330
D2
100
AcDbSortentsTable
330
70
  0
ACDBDETAILVIEWSTYLE
  5
6B
102
{ACAD_XDICTIONARY
360
D6
102
}
102
{ACAD_REACTORS
330
6A
102
}
330
6A
100
AcDbModelDocViewStyle
 70
     0
  3
Imperial24
290
     0
100
AcDbDetailViewStyle
 70
     0
 71
     0
 90
        3
 71
     1
340
55
 62
   256
 40
0.24
340
0
 62
   256
 40
0.24
300

 40
0.36
280
     3
 71
     2
340
5D
 90
       25
 62
   256
 71
     3
340
55
 62
   256
 40
0.24
 90
        1
 40
0.75
 90
        1
300
%<\AcVar ViewType \f "%tc1">% %<\AcVar ViewDetailId>%\PSCALE %<\AcVar ViewScale \f "%sn">%
 71
     4
340
5D
 90
       25
 62
   256
340
5D
 90
       25
 62
   256
280
     0
  0
LAYOUT
  5
6F
102
{ACAD_REACTORS
330
62
102
}
330
62
100
AcDbPlotSettings
  1

  2

  4

  6

 40
0.0
 41
0.0
 42
0.0
 43
0.0
 44
0.0
 45
0.0
 46
0.0
 47
0.0
 48
0.0
 49
0.0
140
0.0
141
0.0
142
1.0
143
1.0
 70
   688
 72
     0
 73
     0
 74
     5
  7

 75
    16
147
1.0
 76
     0
 77
     2
 78
   300
148
0.0
149
0.0
100
AcDbLayout
  1
Layout1
 70
     1
 71
     1
 10
0.0
 20
0.0
 11
12.0
 21
9.0
 12
0.0
 22
0.0
 32
0.0
 14
1.000000000000000E+20
 24
1.000000000000000E+20
 34
1.000000000000000E+20
 15
-1.000000000000000E+20
 25
-1.000000000000000E+20
 35
-1.000000000000000E+20
146
0.0
 13
0.0
 23
0.0
 33
0.0
 16
1.0
 26
0.0
 36
0.0
 17
0.0
 27
1.0
 37
0.0
 76
     0
330
6C
  0
LAYOUT
  5
77
102
{ACAD_REACTORS
330
62
102
}
330
62
100
AcDbPlotSettings
  1

  2

  4

  6

 40
0.0
 41
0.0
 42
0.0
 43
0.0
 44
0.0
 45
0.0
 46
0.0
 47
0.0
 48
0.0
 49
0.0
140
0.0
141
0.0
142
1.0
143
1.0
 70
   688
 72
     0
 73
     0
 74
     5
  7

 75
    16
147
1.0
 76
     0
 77
     2
 78
   300
148
0.0
149
0.0
100
AcDbLayout
  1
Layout2
 70
     1
 71
     2
 10
0.0
 20
0.0
 11
12.0
 21
9.0
 12
0.0
 22
0.0
 32
0.0
 14
0.0
 24
0.0
 34
0.0
 15
0.0
 25
0.0
 35
0.0
146
0.0
 13
0.0
 23
0.0
 33
0.0
 16
1.0
 26
0.0
 36
0.0
 17
0.0
 27
1.0
 37
0.0
 76
     0
330
74
  0
LAYOUT
  5
73
102
{ACAD_REACTORS
330
62
102
}
330
62
100
AcDbPlotSettings
  1

  2

  4

  6

 40
0.0
 41
0.0
 42
0.0
 43
0.0
 44
0.0
 45
0.0
 46
0.0
 47
0.0
 48
0.0
 49
0.0
140
0.0
141
0.0
142
1.0
143
1.0
 70
  1712
 72
     0
 73
     0
 74
     0
  7

 75
     0
147
1.0
 76
     0
 77
     2
 78
   300
148
0.0
149
0.0
100
AcDbLayout
  1
Model
 70
     1
 71
     0
 10
0.0
 20
0.0
 11
12.0
 21
9.0
 12
0.0
 22
0.0
 32
0.0
 14
0.0
 24
0.0
 34
0.0
 15
0.0
 25
0.0
 35
0.0
146
0.0
 13
0.0
 23
0.0
 33
0.0
 16
1.0
 26
0.0
 36
0.0
 17
0.0
 27
1.0
 37
0.0
 76
     0
330
70
331
57
  0
MATERIAL
  5
19
102
{ACAD_XDICTIONARY
360
1A
102
}
102
{ACAD_REACTORS
330
10
102
}
330
10
100
AcDbMaterial
  1
ByBlock
 72
     0
 43
0.0208333333333333
 43
0.0
 43
0.0
 43
0.0
 43
0.0
 43
0.0208333333333333
 43
0.0
 43
0.0
 43
0.0
 43
0.0
 43
1.0
 43
0.0
 43
0.0
 43
0.0
 43
0.0
 43
1.0
 77
     0
 47
0.0208333333333333
 47
0.0
 47
0.0
 47
0.0
 47
0.0
 47
0.0208333333333333
 47
0.0
 47
0.0
 47
0.0
 47
0.0
 47
1.0
 47
0.0
 47
0.0
 47
0.0
 47
0.0
 47
1.0
171
     0
 49
0.0208333333333333
 49
0.0
 49
0.0
 49
0.0
 49
0.0
 49
0.0208333333333333
 49
0.0
 49
0.0
 49
0.0
 49
0.0
 49
1.0
 49
0.0
 49
0.0
 49
0.0
 49
0.0
 49
1.0
175
     0
142
0.0208333333333333
142
0.0
142
0.0
142
0.0
142
0.0
142
0.0208333333333333
142
0.0
142
0.0
142
0.0
142
0.0
142
1.0
142
0.0
142
0.0
142
0.0
142
0.0
142
1.0
179
     0
144
0.0208333333333333
144
0.0
144
0.0
144
0.0
144
0.0
144
0.0208333333333333
144
0.0
144
0.0
144
0.0
144
0.0
144
1.0
144
0.0
144
0.0
144
0.0
144
0.0
144
1.0
147
0.0208333333333333
147
0.0
147
0.0
147
0.0
147
0.0
147
0.0208333333333333
147
0.0
147
0.0
147
0.0
147
0.0
147
1.0
147
0.0
147
0.0
147
0.0
147
0.0
147
1.0
  0
MATERIAL
  5
11
102
{ACAD_XDICTIONARY
360
12
102
}
102
{ACAD_REACTORS
330
10
102
}
330
10
100
AcDbMaterial
  1
ByLayer
 72
     0
 43
0.0208333333333333
 43
0.0
 43
0.0
 43
0.0
 43
0.0
 43
0.0208333333333333
 43
0.0
 43
0.0
 43
0.0
 43
0.0
 43
1.0
 43
0.0
 43
0.0
 43
0.0
 43
0.0
 43
1.0
 77
     0
 47
0.0208333333333333
 47
0.0
 47
0.0
 47
0.0
 47
0.0
 47
0.0208333333333333
 47
0.0
 47
0.0
 47
0.0
 47
0.0
 47
1.0
 47
0.0
 47
0.0
 47
0.0
 47
0.0
 47
1.0
171
     0
 49
0.0208333333333333
 49
0.0
 49
0.0
 49
0.0
 49
0.0
 49
0.0208333333333333
 49
0.0
 49
0.0
 49
0.0
 49
0.0
 49
1.0
 49
0.0
 49
0.0
 49
0.0
 49
0.0
 49
1.0
175
     0
142
0.0208333333333333
142
0.0
142
0.0
142
0.0
142
0.0
142
0.0208333333333333
142
0.0
142
0.0
142
0.0
142
0.0
142
1.0
142
0.0
142
0.0
142
0.0
142
0.0
142
1.0
179
     0
144
0.0208333333333333
144
0.0
144
0.0
144
0.0
144
0.0
144
0.0208333333333333
144
0.0
144
0.0
144
0.0
144
0.0
144
1.0
144
0.0
144
0.0
144
0.0
144
0.0
144
1.0
147
0.0208333333333333
147
0.0
147
0.0
147
0.0
147
0.0
147
0.0208333333333333
147
0.0
147
0.0
147
0.0
147
0.0
147
1.0
147
0.0
147
0.0
147
0.0
147
0.0
147
1.0
  0
MATERIAL
  5
21
102
{ACAD_XDICTIONARY
360
22
102
}
102
{ACAD_REACTORS
330
10
102
}
330
10
100
AcDbMaterial
  1
Global
 72
     0
 43
0.0208333333333333
 43
0.0
 43
0.0
 43
0.0
 43
0.0
 43
0.0208333333333333
 43
0.0
 43
0.0
 43
0.0
 43
0.0
 43
1.0
 43
0.0
 43
0.0
 43
0.0
 43
0.0
 43
1.0
 77
     0
 47
0.0208333333333333
 47
0.0
 47
0.0
 47
0.0
 47
0.0
 47
0.0208333333333333
 47
0.0
 47
0.0
 47
0.0
 47
0.0
 47
1.0
 47
0.0
 47
0.0
 47
0.0
 47
0.0
 47
1.0
171
     0
 49
0.0208333333333333
 49
0.0
 49
0.0
 49
0.0
 49
0.0
 49
0.0208333333333333
 49
0.0
 49
0.0
 49
0.0
 49
0.0
 49
1.0
 49
0.0
 49
0.0
 49
0.0
 49
0.0
 49
1.0
175
     0
142
0.0208333333333333
142
0.0
142
0.0
142
0.0
142
0.0
142
0.0208333333333333
142
0.0
142
0.0
142
0.0
142
0.0
142
1.0
142
0.0
142
0.0
142
0.0
142
0.0
142
1.0
179
     0
144
0.0208333333333333
144
0.0
144
0.0
144
0.0
144
0.0
144
0.0208333333333333
144
0.0
144
0.0
144
0.0
144
0.0
144
1.0
144
0.0
144
0.0
144
0.0
144
0.0
144
1.0
147
0.0208333333333333
147
0.0
147
0.0
147
0.0
147
0.0
147
0.0208333333333333
147
0.0
147
0.0
147
0.0
147
0.0
147
1.0
147
0.0
147
0.0
147
0.0
147
0.0
147
1.0
  0
MLEADERSTYLE
  5
67
102
{ACAD_REACTORS
330
66
102
}
330
66
100
AcDbMLeaderStyle
179
     2
170
     2
171
     1
172
     0
 90
        2
 40
0.0
 41
0.0
173
     1
 91
-1056964608
340
5B
 92
       -2
290
     1
 42
0.09
291
     1
 43
0.36
  3
Standard
 44
0.18
300

342
55
174
     1
178
     6
175
     1
176
     0
 93
-1056964608
 45
0.18
292
     0
297
     0
 46
0.18
 94
-1056964608
 47
1.0
 49
1.0
140
1.0
293
     1
141
0.0
294
     1
177
     0
142
1.0
295
     1
296
     0
143
0.125
271
     0
272
     9
273
     9
298
     1
  0
MLINESTYLE
  5
60
102
{ACAD_REACTORS
330
5F
102
}
330
5F
100
AcDbMlineStyle
  2
STANDARD
 70
     0
  3

 62
   256
 51
90.0
 52
90.0
 71
     2
 49
0.5
 62
   256
  6
BYLAYER
 49
-0.5
 62
   256
  6
BYLAYER
  0
ACDBPLACEHOLDER
  5
F
102
{ACAD_REACTORS
330
E
102
}
330
E
  0
SCALE
  5
43
102
{ACAD_REACTORS
330
42
102
}
330
42
100
AcDbScale
 70
     0
300
1:1
140
1.0
141
1.0
290
     1
  0
SCALE
  5
44
102
{ACAD_REACTORS
330
42
102
}
330
42
100
AcDbScale
 70
     0
300
1/128" = 1'-0"
140
0.0078125
141
12.0
290
     0
  0
SCALE
  5
45
102
{ACAD_REACTORS
330
42
102
}
330
42
100
AcDbScale
 70
     0
300
1/64" = 1'-0"
140
0.015625
141
12.0
290
     0
  0
SCALE
  5
46
102
{ACAD_REACTORS
330
42
102
}
330
42
100
AcDbScale
 70
     0
300
1/32" = 1'-0"
140
0.03125
141
12.0
290
     0
  0
SCALE
  5
47
102
{ACAD_REACTORS
330
42
102
}
330
42
100
AcDbScale
 70
     0
300
1/16" = 1'-0"
140
0.0625
141
12.0
290
     0
  0
SCALE
  5
48
102
{ACAD_REACTORS
330
42
102
}
330
42
100
AcDbScale
 70
     0
300
3/32" = 1'-0"
140
0.09375
141
12.0
290
     0
  0
SCALE
  5
49
102
{ACAD_REACTORS
330
42
102
}
330
42
100
AcDbScale
 70
     0
300
1/8" = 1'-0"
140
0.125
141
12.0
290
     0
  0
SCALE
  5
4A
102
{ACAD_REACTORS
330
42
102
}
330
42
100
AcDbScale
 70
     0
300
3/16" = 1'-0"
140
0.1875
141
12.0
290
     0
  0
SCALE
  5
4B
102
{ACAD_REACTORS
330
42
102
}
330
42
100
AcDbScale
 70
     0
300
1/4" = 1'-0"
140
0.25
141
12.0
290
     0
  0
SCALE
  5
4C
102
{ACAD_REACTORS
330
42
102
}
330
42
100
AcDbScale
 70
     0
300
3/8" = 1'-0"
140
0.375
141
12.0
290
     0
  0
SCALE
  5
4D
102
{ACAD_REACTORS
330
42
102
}
330
42
100
AcDbScale
 70
     0
300
1/2" = 1'-0"
140
0.5
141
12.0
290
     0
  0
SCALE
  5
4E
102
{ACAD_REACTORS
330
42
102
}
330
42
100
AcDbScale
 70
     0
300
3/4" = 1'-0"
140
0.75
141
12.0
290
     0
  0
SCALE
  5
4F
102
{ACAD_REACTORS
330
42
102
}
330
42
100
AcDbScale
 70
     0
300
1" = 1'-0"
140
1.0
141
12.0
290
     0
  0
SCALE
  5
50
102
{ACAD_REACTORS
330
42
102
}
330
42
100
AcDbScale
 70
     0
300
1-1/2" = 1'-0"
140
1.5
141
12.0
290
     0
  0
SCALE
  5
51
102
{ACAD_REACTORS
330
42
102
}
330
42
100
AcDbScale
 70
     0
300
3" = 1'-0"
140
3.0
141
12.0
290
     0
  0
SCALE
  5
52
102
{ACAD_REACTORS
330
42
102
}
330
42
100
AcDbScale
 70
     0
300
6" = 1'-0"
140
6.0
141
12.0
290
     0
  0
SCALE
  5
53
102
{ACAD_REACTORS
330
42
102
}
330
42
100
AcDbScale
 70
     0
300
1'-0" = 1'-0"
140
12.0
141
12.0
290
     0
  0
ACDBSECTIONVIEWSTYLE
  5
69
102
{ACAD_XDICTIONARY
360
D4
102
}
102
{ACAD_REACTORS
330
68
102
}
330
68
100
AcDbModelDocViewStyle
 70
     0
  3
Imperial24
290
     0
100
AcDbSectionViewStyle
 70
     0
 71
     0
 90
       78
 71
     1
340
55
 62
   256
 40
0.24
340
0
340
0
 62
   256
 40
0.24
300
I, O, Q, S, X, Z
 40
0.48
 90
        3
 40
0.18
 90
        1
 71
     2
340
5D
 90
       25
 62
   256
340
5D
 90
       50
 62
   256
 40
0.24
 40
0.0
 40
0.24
 71
     3
340
55
 62
   256
 40
0.24
 90
        1
 40
0.75
 90
        1
300
%<\AcVar ViewType \f "%tc1">% %<\AcVar ViewSectionStartId>%-%<\AcVar ViewSectionEndId>%\PSCALE %<\AcVar ViewScale \f "%sn">%
 71
     4
 62
   256
 62
   257
300
ANSI31
 40
1.0
 90
        0
290
     0
290
     0
 90
        6
 40
0.0
 40
1.570796326794896
 40
0.2617993877991494
 40
1.308996938995747
 40
-0.2617993877991494
 40
1.832595714594046
  0
TABLESTYLE
  5
65
102
{ACAD_XDICTIONARY
360
205
102
}
102
{ACAD_REACTORS
330
64
102
}
330
64
100
AcDbTableStyle
280
     0
  3
Standard
 70
     0
 71
     0
 40
0.06
 41
0.06
280
     0
281
     0
  7
Standard
140
0.18
170
     2
 62
     0
 63
     7
283
     0
 90
      512
 91
        0
  1

274
    -2
284
     1
 64
     0
275
    -2
285
     1
 65
     0
276
    -2
286
     1
 66
     0
277
    -2
287
     1
 67
     0
278
    -2
288
     1
 68
     0
279
    -2
289
     1
 69
     0
  7
Standard
140
0.25
170
     5
 62
     0
 63
     7
283
     0
 90
      512
 91
        0
  1

274
    -2
284
     1
 64
     0
275
    -2
285
     1
 65
     0
276
    -2
286
     1
 66
     0
277
    -2
287
     1
 67
     0
278
    -2
288
     1
 68
     0
279
    -2
289
     1
 69
     0
  7
Standard
140
0.18
170
     5
 62
     0
 63
     7
283
     0
 90
      512
 91
        0
  1

274
    -2
284
     1
 64
     0
275
    -2
285
     1
 65
     0
276
    -2
286
     1
 66
     0
277
    -2
287
     1
 67
     0
278
    -2
288
     1
 68
     0
279
    -2
289
     1
 69
     0
  0
VISUALSTYLE
  5
2F
102
{ACAD_REACTORS
330
29
102
}
330
29
100
AcDbVisualStyle
  2
2dWireframe
 70
     4
177
     3
291
     0
 70
    58
 90
        0
176
     1
 90
        2
176
     1
 90
        0
176
     1
 90
        0
176
     1
 40
0.6
176
     1
 40
30.0
176
     1
 62
     7
420
 16777215
176
     1
 90
        1
176
     1
 90
        4
176
     1
 62
     7
176
     1
 62
   257
176
     1
 90
        1
176
     1
 90
        1
176
     1
 40
1.0
176
     1
 90
        0
176
     1
 62
   257
176
     1
 40
1.0
176
     1
 90
        1
176
     1
 90
        6
176
     1
 90
        2
176
     1
 62
     7
176
     1
 90
        5
176
     1
 90
        0
176
     1
 90
        0
176
     1
290
     0
176
     1
 90
        1
176
     1
 40
0.0
176
     1
 90
        0
176
     1
290
     1
176
     1
290
     1
176
     1
290
     0
176
     1
290
     0
176
     1
290
     0
176
     1
290
     0
176
     1
290
     0
176
     1
290
     0
176
     1
290
     0
176
     1
 90
       50
176
     1
 40
0.0
176
     1
 40
1.0
176
     1
 90
        0
176
     1
 62
    18
420
        0
176
     1
 90
       50
176
     1
 90
        3
176
     1
 62
     5
420
      255
176
     1
290
     0
176
     1
 90
       50
176
     1
 90
       50
176
     1
 90
       50
176
     1
290
     0
176
     1
 90
       50
176
     1
 62
   256
176
     0
 40
1.0
176
     0
 90
        2
176
     1
  1
strokes_ogs.tif
176
     1
290
     0
176
     1
 40
1.0
176
     1
 40
1.0
176
     1
  0
VISUALSTYLE
  5
2E
102
{ACAD_REACTORS
330
29
102
}
330
29
100
AcDbVisualStyle
  2
Basic
 70
     7
177
     3
291
     1
 70
    58
 90
        1
176
     1
 90
        0
176
     1
 90
        1
176
     1
 90
        0
176
     1
 40
0.6
176
     1
 40
30.0
176
     1
 62
     7
420
 16777215
176
     1
 90
        0
176
     1
 90
        4
176
     1
 62
     7
176
     1
 62
   257
176
     1
 90
        1
176
     1
 90
        1
176
     1
 40
1.0
176
     1
 90
        8
176
     1
 62
     7
176
     1
 40
1.0
176
     1
 90
        1
176
     1
 90
        6
176
     1
 90
        2
176
     1
 62
     7
176
     1
 90
        5
176
     1
 90
        0
176
     1
 90
        0
176
     1
290
     0
176
     1
 90
        1
176
     1
 40
0.0
176
     1
 90
        0
176
     1
290
     0
176
     1
290
     1
176
     1
290
     1
176
     1
290
     0
176
     1
290
     0
176
     1
290
     0
176
     1
290
     0
176
     1
290
     0
176
     1
290
     0
176
     1
 90
       50
176
     1
 40
0.0
176
     1
 40
1.0
176
     1
 90
        0
176
     1
 62
    18
420
        0
176
     1
 90
       50
176
     1
 90
        3
176
     1
 62
     5
420
      255
176
     1
290
     0
176
     1
 90
       50
176
     1
 90
       50
176
     1
 90
       50
176
     1
290
     0
176
     1
 90
       50
176
     1
 62
   256
176
     0
 40
1.0
176
     0
 90
        2
176
     1
  1
strokes_ogs.tif
176
     1
290
     0
176
     1
 40
1.0
176
     1
 40
1.0
176
     1
  0
VISUALSTYLE
  5
35
102
{ACAD_REACTORS
330
29
102
}
330
29
100
AcDbVisualStyle
  2
Brighten
 70
    12
177
     3
291
     1
 70
    58
 90
        2
176
     1
 90
        2
176
     1
 90
        0
176
     1
 90
        0
176
     1
 40
0.6
176
     1
 40
30.0
176
     1
 62
     7
420
 16777215
176
     1
 90
        1
176
     1
 90
        4
176
     1
 62
     7
176
     1
 62
   257
176
     1
 90
        1
176
     1
 90
        1
176
     1
 40
1.0
176
     1
 90
        8
176
     1
 62
     7
176
     1
 40
1.0
176
     1
 90
        1
176
     1
 90
        6
176
     1
 90
        2
176
     1
 62
     7
176
     1
 90
        5
176
     1
 90
        0
176
     1
 90
        0
176
     1
290
     0
176
     1
 90
        1
176
     1
 40
50.0
176
     1
 90
        0
176
     1
290
     0
176
     1
290
     1
176
     1
290
     1
176
     1
290
     0
176
     1
290
     0
176
     1
290
     0
176
     1
290
     0
176
     1
290
     0
176
     1
290
     0
176
     1
 90
       50
176
     1
 40
0.0
176
     1
 40
1.0
176
     1
 90
        0
176
     1
 62
    18
420
        0
176
     1
 90
       50
176
     1
 90
        3
176
     1
 62
     5
420
      255
176
     1
290
     0
176
     1
 90
       50
176
     1
 90
       50
176
     1
 90
       50
176
     1
290
     0
176
     1
 90
       50
176
     1
 62
   256
176
     0
 40
1.0
176
     0
 90
        2
176
     1
  1
strokes_ogs.tif
176
     1
290
     0
176
     1
 40
1.0
176
     1
 40
1.0
176
     1
  0
VISUALSTYLE
  5
39
102
{ACAD_REACTORS
330
29
102
}
330
29
100
AcDbVisualStyle
  2
ColorChange
 70
    16
177
     3
291
     1
 70
    58
 90
        2
176
     1
 90
        2
176
     1
 90
        3
176
     1
 90
        0
176
     1
 40
0.6
176
     1
 40
30.0
176
     1
 62
     8
420
  8421504
176
     1
 90
        1
176
     1
 90
        4
176
     1
 62
     7
176
     1
 62
   257
176
     1
 90
        1
176
     1
 90
        1
176
     1
 40
1.0
176
     1
 90
        8
176
     1
 62
     8
420
  8421504
176
     1
 40
1.0
176
     1
 90
        1
176
     1
 90
        6
176
     1
 90
        2
176
     1
 62
     7
176
     1
 90
        5
176
     1
 90
        0
176
     1
 90
        0
176
     1
290
     0
176
     1
 90
        1
176
     1
 40
0.0
176
     1
 90
        0
176
     1
290
     0
176
     1
290
     1
176
     1
290
     1
176
     1
290
     0
176
     1
290
     0
176
     1
290
     0
176
     1
290
     0
176
     1
290
     0
176
     1
290
     0
176
     1
 90
       50
176
     1
 40
0.0
176
     1
 40
1.0
176
     1
 90
        0
176
     1
 62
    18
420
        0
176
     1
 90
       50
176
     1
 90
        3
176
     1
 62
     5
420
      255
176
     1
290
     0
176
     1
 90
       50
176
     1
 90
       50
176
     1
 90
       50
176
     1
290
     0
176
     1
 90
       50
176
     1
 62
   256
176
     0
 40
1.0
176
     0
 90
        2
176
     1
  1
strokes_ogs.tif
176
     1
290
     0
176
     1
 40
1.0
176
     1
 40
1.0
176
     1
  0
VISUALSTYLE
  5
32
102
{ACAD_REACTORS
330
29
102
}
330
29
100
AcDbVisualStyle
  2
Conceptual
 70
     9
177
     3
291
     0
 70
    58
 90
        3
176
     1
 90
        2
176
     1
 90
        0
176
     1
 90
        0
176
     1
 40
0.6
176
     1
 40
30.0
176
     1
 62
     7
420
 16777215
176
     1
 90
        2
176
     1
 90
        2
176
     1
 62
     7
176
     1
 62
   257
176
     1
 90
        1
176
     1
 90
        1
176
     1
 40
179.0
176
     1
 90
        8
176
     1
 62
     7
176
     1
 40
1.0
176
     1
 90
        1
176
     1
 90
        6
176
     1
 90
        2
176
     1
 62
     7
176
     1
 90
        3
176
     1
 90
        0
176
     1
 90
        0
176
     1
290
     0
176
     1
 90
        1
176
     1
 40
0.0
176
     1
 90
        0
176
     1
290
     0
176
     1
290
     1
176
     1
290
     1
176
     1
290
     0
176
     1
290
     0
176
     1
290
     0
176
     1
290
     0
176
     1
290
     0
176
     1
290
     0
176
     1
 90
       50
176
     1
 40
0.0
176
     1
 40
1.0
176
     1
 90
        0
176
     1
 62
    18
420
        0
176
     1
 90
       50
176
     1
 90
        3
176
     1
 62
     5
420
      255
176
     1
290
     0
176
     1
 90
       50
176
     1
 90
       50
176
     1
 90
       50
176
     1
290
     0
176
     1
 90
       50
176
     1
 62
   256
176
     0
 40
1.0
176
     0
 90
        2
176
     1
  1
strokes_ogs.tif
176
     1
290
     0
176
     1
 40
1.0
176
     1
 40
1.0
176
     1
  0
VISUALSTYLE
  5
34
102
{ACAD_REACTORS
330
29
102
}
330
29
100
AcDbVisualStyle
  2
Dim
 70
    11
177
     3
291
     1
 70
    58
 90
        2
176
     1
 90
        2
176
     1
 90
        0
176
     1
 90
        0
176
     1
 40
0.6
176
     1
 40
30.0
176
     1
 62
     7
420
 16777215
176
     1
 90
        1
176
     1
 90
        4
176
     1
 62
     7
176
     1
 62
   257
176
     1
 90
        1
176
     1
 90
        1
176
     1
 40
1.0
176
     1
 90
        8
176
     1
 62
     7
176
     1
 40
1.0
176
     1
 90
        1
176
     1
 90
        6
176
     1
 90
        2
176
     1
 62
     7
176
     1
 90
        5
176
     1
 90
        0
176
     1
 90
        0
176
     1
290
     0
176
     1
 90
        1
176
     1
 40
-50.0
176
     1
 90
        0
176
     1
290
     0
176
     1
290
     1
176
     1
290
     1
176
     1
290
     0
176
     1
290
     0
176
     1
290
     0
176
     1
290
     0
176
     1
290
     0
176
     1
290
     0
176
     1
 90
       50
176
     1
 40
0.0
176
     1
 40
1.0
176
     1
 90
        0
176
     1
 62
    18
420
        0
176
     1
 90
       50
176
     1
 90
        3
176
     1
 62
     5
420
      255
176
     1
290
     0
176
     1
 90
       50
176
     1
 90
       50
176
     1
 90
       50
176
     1
290
     0
176
     1
 90
       50
176
     1
 62
   256
176
     0
 40
1.0
176
     0
 90
        2
176
     1
  1
strokes_ogs.tif
176
     1
290
     0
176
     1
 40
1.0
176
     1
 40
1.0
176
     1
  0
VISUALSTYLE
  5
41
102
{ACAD_REACTORS
330
29
102
}
330
29
100
AcDbVisualStyle
  2
EdgeColorOff
 70
    22
177
     3
291
     1
 70
    58
 90
        2
176
     0
 90
        2
176
     0
 90
        0
176
     0
 90
        0
176
     0
 40
0.6
176
     0
 40
30.0
176
     0
 62
     7
420
 16777215
176
     0
 90
        1
176
     0
 90
        4
176
     0
 62
     7
176
     0
 62
   257
176
     0
 90
        1
176
     0
 90
        1
176
     0
 40
1.0
176
     0
 90
        8
176
     2
 62
     7
176
     0
 40
1.0
176
     0
 90
        1
176
     0
 90
        6
176
     0
 90
        2
176
     0
 62
     7
176
     0
 90
        5
176
     0
 90
        0
176
     0
 90
        0
176
     0
290
     0
176
     0
 90
        1
176
     0
 40
0.0
176
     0
 90
        0
176
     0
290
     0
176
     0
290
     1
176
     0
290
     1
176
     0
290
     0
176
     0
290
     0
176
     0
290
     0
176
     0
290
     0
176
     0
290
     0
176
     0
290
     0
176
     0
 90
       50
176
     0
 40
0.0
176
     0
 40
1.0
176
     0
 90
        0
176
     0
 62
    18
420
        0
176
     0
 90
       50
176
     0
 90
        3
176
     0
 62
     5
420
      255
176
     0
290
     0
176
     0
 90
       50
176
     0
 90
       50
176
     0
 90
       50
176
     0
290
     0
176
     0
 90
       50
176
     0
 62
   256
176
     0
 40
1.0
176
     0
 90
        2
176
     0
  1
strokes_ogs.tif
176
     0
290
     0
176
     0
 40
1.0
176
     0
 40
1.0
176
     0
  0
VISUALSTYLE
  5
38
102
{ACAD_REACTORS
330
29
102
}
330
29
100
AcDbVisualStyle
  2
Facepattern
 70
    15
177
     3
291
     1
 70
    58
 90
        2
176
     1
 90
        2
176
     1
 90
        0
176
     1
 90
        0
176
     1
 40
0.6
176
     1
 40
30.0
176
     1
 62
     7
420
 16777215
176
     1
 90
        1
176
     1
 90
        4
176
     1
 62
     7
176
     1
 62
   257
176
     1
 90
        1
176
     1
 90
        1
176
     1
 40
1.0
176
     1
 90
        8
176
     1
 62
     7
176
     1
 40
1.0
176
     1
 90
        1
176
     1
 90
        6
176
     1
 90
        2
176
     1
 62
     7
176
     1
 90
        5
176
     1
 90
        0
176
     1
 90
        0
176
     1
290
     0
176
     1
 90
        1
176
     1
 40
0.0
176
     1
 90
        0
176
     1
290
     0
176
     1
290
     1
176
     1
290
     1
176
     1
290
     0
176
     1
290
     0
176
     1
290
     0
176
     1
290
     0
176
     1
290
     0
176
     1
290
     0
176
     1
 90
       50
176
     1
 40
0.0
176
     1
 40
1.0
176
     1
 90
        0
176
     1
 62
    18
420
        0
176
     1
 90
       50
176
     1
 90
        3
176
     1
 62
     5
420
      255
176
     1
290
     0
176
     1
 90
       50
176
     1
 90
       50
176
     1
 90
       50
176
     1
290
     0
176
     1
 90
       50
176
     1
 62
   256
176
     0
 40
1.0
176
     0
 90
        2
176
     1
  1
strokes_ogs.tif
176
     1
290
     0
176
     1
 40
1.0
176
     1
 40
1.0
176
     1
  0
VISUALSTYLE
  5
2A
102
{ACAD_REACTORS
330
29
102
}
330
29
100
AcDbVisualStyle
  2
Flat
 70
     0
177
     3
291
     1
 70
    58
 90
        2
176
     1
 90
        1
176
     1
 90
        1
176
     1
 90
        2
176
     1
 40
0.6
176
     1
 40
30.0
176
     1
 62
     7
420
 16777215
176
     1
 90
        0
176
     1
 90
        0
176
     1
 62
     7
176
     1
 62
   257
176
     1
 90
        1
176
     1
 90
        1
176
     1
 40
1.0
176
     1
 90
        8
176
     1
 62
     7
176
     1
 40
1.0
176
     1
 90
        1
176
     1
 90
        6
176
     1
 90
        2
176
     1
 62
     7
176
     1
 90
        5
176
     1
 90
        0
176
     1
 90
        0
176
     1
290
     0
176
     1
 90
       13
176
     1
 40
0.0
176
     1
 90
        0
176
     1
290
     0
176
     1
290
     1
176
     1
290
     1
176
     1
290
     0
176
     1
290
     0
176
     1
290
     0
176
     1
290
     0
176
     1
290
     0
176
     1
290
     0
176
     1
 90
       50
176
     1
 40
0.0
176
     1
 40
1.0
176
     1
 90
        0
176
     1
 62
    18
420
        0
176
     1
 90
       50
176
     1
 90
        3
176
     1
 62
     5
420
      255
176
     1
290
     0
176
     1
 90
       50
176
     1
 90
       50
176
     1
 90
       50
176
     1
290
     0
176
     1
 90
       50
176
     1
 62
   256
176
     0
 40
1.0
176
     0
 90
        2
176
     1
  1
strokes_ogs.tif
176
     1
290
     0
176
     1
 40
1.0
176
     1
 40
1.0
176
     1
  0
VISUALSTYLE
  5
2B
102
{ACAD_REACTORS
330
29
102
}
330
29
100
AcDbVisualStyle
  2
FlatWithEdges
 70
     1
177
     3
291
     1
 70
    58
 90
        2
176
     1
 90
        1
176
     1
 90
        1
176
     1
 90
        2
176
     1
 40
0.6
176
     1
 40
30.0
176
     1
 62
     7
420
 16777215
176
     1
 90
        1
176
     1
 90
        0
176
     1
 62
     7
176
     1
 62
   257
176
     1
 90
        1
176
     1
 90
        1
176
     1
 40
1.0
176
     1
 90
        0
176
     1
 62
   257
176
     1
 40
1.0
176
     1
 90
        1
176
     1
 90
        6
176
     1
 90
        2
176
     1
 62
     7
176
     1
 90
        5
176
     1
 90
        0
176
     1
 90
        0
176
     1
290
     0
176
     1
 90
       13
176
     1
 40
0.0
176
     1
 90
        0
176
     1
290
     0
176
     1
290
     1
176
     1
290
     1
176
     1
290
     0
176
     1
290
     0
176
     1
290
     0
176
     1
290
     0
176
     1
290
     0
176
     1
290
     0
176
     1
 90
       50
176
     1
 40
0.0
176
     1
 40
1.0
176
     1
 90
        0
176
     1
 62
    18
420
        0
176
     1
 90
       50
176
     1
 90
        3
176
     1
 62
     5
420
      255
176
     1
290
     0
176
     1
 90
       50
176
     1
 90
       50
176
     1
 90
       50
176
     1
290
     0
176
     1
 90
       50
176
     1
 62
   256
176
     0
 40
1.0
176
     0
 90
        2
176
     1
  1
strokes_ogs.tif
176
     1
290
     0
176
     1
 40
1.0
176
     1
 40
1.0
176
     1
  0
VISUALSTYLE
  5
2C
102
{ACAD_REACTORS
330
29
102
}
330
29
100
AcDbVisualStyle
  2
Gouraud
 70
     2
177
     3
291
     1
 70
    58
 90
        2
176
     1
 90
        2
176
     1
 90
        1
176
     1
 90
        2
176
     1
 40
0.6
176
     1
 40
30.0
176
     1
 62
     7
420
 16777215
176
     1
 90
        0
176
     1
 90
        0
176
     1
 62
     7
176
     1
 62
   257
176
     1
 90
        1
176
     1
 90
        1
176
     1
 40
1.0
176
     1
 90
        0
176
     1
 62
     7
176
     1
 40
1.0
176
     1
 90
        1
176
     1
 90
        6
176
     1
 90
        2
176
     1
 62
     7
176
     1
 90
        5
176
     1
 90
        0
176
     1
 90
        0
176
     1
290
     0
176
     1
 90
       13
176
     1
 40
0.0
176
     1
 90
        0
176
     1
290
     0
176
     1
290
     1
176
     1
290
     1
176
     1
290
     0
176
     1
290
     0
176
     1
290
     0
176
     1
290
     0
176
     1
290
     0
176
     1
290
     0
176
     1
 90
       50
176
     1
 40
0.0
176
     1
 40
1.0
176
     1
 90
        0
176
     1
 62
    18
420
        0
176
     1
 90
       50
176
     1
 90
        3
176
     1
 62
     5
420
      255
176
     1
290
     0
176
     1
 90
       50
176
     1
 90
       50
176
     1
 90
       50
176
     1
290
     0
176
     1
 90
       50
176
     1
 62
   256
176
     0
 40
1.0
176
     0
 90
        2
176
     1
  1
strokes_ogs.tif
176
     1
290
     0
176
     1
 40
1.0
176
     1
 40
1.0
176
     1
  0
VISUALSTYLE
  5
2D
102
{ACAD_REACTORS
330
29
102
}
330
29
100
AcDbVisualStyle
  2
GouraudWithEdges
 70
     3
177
     3
291
     1
 70
    58
 90
        2
176
     1
 90
        2
176
     1
 90
        1
176
     1
 90
        2
176
     1
 40
0.6
176
     1
 40
30.0
176
     1
 62
     7
420
 16777215
176
     1
 90
        1
176
     1
 90
        0
176
     1
 62
     7
176
     1
 62
   257
176
     1
 90
        1
176
     1
 90
        1
176
     1
 40
1.0
176
     1
 90
        0
176
     1
 62
   257
176
     1
 40
1.0
176
     1
 90
        1
176
     1
 90
        6
176
     1
 90
        2
176
     1
 62
     7
176
     1
 90
        5
176
     1
 90
        0
176
     1
 90
        0
176
     1
290
     0
176
     1
 90
       13
176
     1
 40
0.0
176
     1
 90
        0
176
     1
290
     0
176
     1
290
     1
176
     1
290
     1
176
     1
290
     0
176
     1
290
     0
176
     1
290
     0
176
     1
290
     0
176
     1
290
     0
176
     1
290
     0
176
     1
 90
       50
176
     1
 40
0.0
176
     1
 40
1.0
176
     1
 90
        0
176
     1
 62
    18
420
        0
176
     1
 90
       50
176
     1
 90
        3
176
     1
 62
     5
420
      255
176
     1
290
     0
176
     1
 90
       50
176
     1
 90
       50
176
     1
 90
       50
176
     1
290
     0
176
     1
 90
       50
176
     1
 62
   256
176
     0
 40
1.0
176
     0
 90
        2
176
     1
  1
strokes_ogs.tif
176
     1
290
     0
176
     1
 40
1.0
176
     1
 40
1.0
176
     1
  0
VISUALSTYLE
  5
31
102
{ACAD_REACTORS
330
29
102
}
330
29
100
AcDbVisualStyle
  2
Hidden
 70
     6
177
     3
291
     0
 70
    58
 90
        1
176
     1
 90
        2
176
     1
 90
        2
176
     1
 90
        0
176
     1
 40
0.6
176
     1
 40
30.0
176
     1
 62
     7
420
 16777215
176
     1
 90
        2
176
     1
 90
        2
176
     1
 62
     7
176
     1
 62
   257
176
     1
 90
        2
176
     1
 90
        1
176
     1
 40
40.0
176
     1
 90
        0
176
     1
 62
   257
176
     1
 40
1.0
176
     1
 90
        1
176
     1
 90
        6
176
     1
 90
        2
176
     1
 62
     7
176
     1
 90
        3
176
     1
 90
        0
176
     1
 90
        0
176
     1
290
     0
176
     1
 90
        1
176
     1
 40
0.0
176
     1
 90
        0
176
     1
290
     0
176
     1
290
     1
176
     1
290
     1
176
     1
290
     0
176
     1
290
     0
176
     1
290
     0
176
     1
290
     0
176
     1
290
     0
176
     1
290
     0
176
     1
 90
       50
176
     1
 40
0.0
176
     1
 40
1.0
176
     1
 90
        0
176
     1
 62
    18
420
        0
176
     1
 90
       50
176
     1
 90
        3
176
     1
 62
     5
420
      255
176
     1
290
     0
176
     1
 90
       50
176
     1
 90
       50
176
     1
 90
       50
176
     1
290
     0
176
     1
 90
       50
176
     1
 62
   256
176
     0
 40
1.0
176
     0
 90
        2
176
     1
  1
strokes_ogs.tif
176
     1
290
     0
176
     1
 40
1.0
176
     1
 40
1.0
176
     1
  0
VISUALSTYLE
  5
3F
102
{ACAD_REACTORS
330
29
102
}
330
29
100
AcDbVisualStyle
  2
JitterOff
 70
    20
177
     3
291
     1
 70
    58
 90
        2
176
     0
 90
        2
176
     0
 90
        0
176
     0
 90
        0
176
     0
 40
0.6
176
     0
 40
30.0
176
     0
 62
     7
420
 16777215
176
     0
 90
        1
176
     0
 90
        4
176
     0
 62
     7
176
     0
 62
   257
176
     0
 90
        1
176
     0
 90
        1
176
     0
 40
1.0
176
     0
 90
       10
176
     2
 62
     7
176
     0
 40
1.0
176
     0
 90
        1
176
     0
 90
        6
176
     0
 90
        2
176
     0
 62
     7
176
     0
 90
        5
176
     0
 90
        0
176
     0
 90
        0
176
     0
290
     0
176
     0
 90
        1
176
     0
 40
0.0
176
     0
 90
        0
176
     0
290
     0
176
     0
290
     1
176
     0
290
     1
176
     0
290
     0
176
     0
290
     0
176
     0
290
     0
176
     0
290
     0
176
     0
290
     0
176
     0
290
     0
176
     0
 90
       50
176
     0
 40
0.0
176
     0
 40
1.0
176
     0
 90
        0
176
     0
 62
    18
420
        0
176
     0
 90
       50
176
     0
 90
        3
176
     0
 62
     5
420
      255
176
     0
290
     0
176
     0
 90
       50
176
     0
 90
       50
176
     0
 90
       50
176
     0
290
     0
176
     0
 90
       50
176
     0
 62
   256
176
     0
 40
1.0
176
     0
 90
        2
176
     0
  1
strokes_ogs.tif
176
     0
290
     0
176
     0
 40
1.0
176
     0
 40
1.0
176
     0
  0
VISUALSTYLE
  5
37
102
{ACAD_REACTORS
330
29
102
}
330
29
100
AcDbVisualStyle
  2
Linepattern
 70
    14
177
     3
291
     1
 70
    58
 90
        2
176
     1
 90
        2
176
     1
 90
        0
176
     1
 90
        0
176
     1
 40
0.6
176
     1
 40
30.0
176
     1
 62
     7
420
 16777215
176
     1
 90
        1
176
     1
 90
        4
176
     1
 62
     7
176
     1
 62
   257
176
     1
 90
        7
176
     1
 90
        7
176
     1
 40
1.0
176
     1
 90
        8
176
     1
 62
     7
176
     1
 40
1.0
176
     1
 90
        1
176
     1
 90
        6
176
     1
 90
        2
176
     1
 62
     7
176
     1
 90
        5
176
     1
 90
        0
176
     1
 90
        0
176
     1
290
     0
176
     1
 90
        1
176
     1
 40
0.0
176
     1
 90
        0
176
     1
290
     0
176
     1
290
     1
176
     1
290
     1
176
     1
290
     0
176
     1
290
     0
176
     1
290
     0
176
     1
290
     0
176
     1
290
     0
176
     1
290
     0
176
     1
 90
       50
176
     1
 40
0.0
176
     1
 40
1.0
176
     1
 90
        0
176
     1
 62
    18
420
        0
176
     1
 90
       50
176
     1
 90
        3
176
     1
 62
     5
420
      255
176
     1
290
     0
176
     1
 90
       50
176
     1
 90
       50
176
     1
 90
       50
176
     1
290
     0
176
     1
 90
       50
176
     1
 62
   256
176
     0
 40
1.0
176
     0
 90
        2
176
     1
  1
strokes_ogs.tif
176
     1
290
     0
176
     1
 40
1.0
176
     1
 40
1.0
176
     1
  0
VISUALSTYLE
  5
40
102
{ACAD_REACTORS
330
29
102
}
330
29
100
AcDbVisualStyle
  2
OverhangOff
 70
    21
177
     3
291
     1
 70
    58
 90
        2
176
     0
 90
        2
176
     0
 90
        0
176
     0
 90
        0
176
     0
 40
0.6
176
     0
 40
30.0
176
     0
 62
     7
420
 16777215
176
     0
 90
        1
176
     0
 90
        4
176
     0
 62
     7
176
     0
 62
   257
176
     0
 90
        1
176
     0
 90
        1
176
     0
 40
1.0
176
     0
 90
        9
176
     2
 62
     7
176
     0
 40
1.0
176
     0
 90
        1
176
     0
 90
        6
176
     0
 90
        2
176
     0
 62
     7
176
     0
 90
        5
176
     0
 90
        0
176
     0
 90
        0
176
     0
290
     0
176
     0
 90
        1
176
     0
 40
0.0
176
     0
 90
        0
176
     0
290
     0
176
     0
290
     1
176
     0
290
     1
176
     0
290
     0
176
     0
290
     0
176
     0
290
     0
176
     0
290
     0
176
     0
290
     0
176
     0
290
     0
176
     0
 90
       50
176
     0
 40
0.0
176
     0
 40
1.0
176
     0
 90
        0
176
     0
 62
    18
420
        0
176
     0
 90
       50
176
     0
 90
        3
176
     0
 62
     5
420
      255
176
     0
290
     0
176
     0
 90
       50
176
     0
 90
       50
176
     0
 90
       50
176
     0
290
     0
176
     0
 90
       50
176
     0
 62
   256
176
     0
 40
1.0
176
     0
 90
        2
176
     0
  1
strokes_ogs.tif
176
     0
290
     0
176
     0
 40
1.0
176
     0
 40
1.0
176
     0
  0
VISUALSTYLE
  5
33
102
{ACAD_REACTORS
330
29
102
}
330
29
100
AcDbVisualStyle
  2
Realistic
 70
     8
177
     3
291
     0
 70
    58
 90
        2
176
     1
 90
        3
176
     1
 90
        0
176
     1
 90
        2
176
     1
 40
0.6
176
     1
 40
30.0
176
     1
 62
     7
420
 16777215
176
     1
 90
        0
176
     1
 90
        0
176
     1
 62
     7
176
     1
 62
   257
176
     1
 90
        1
176
     1
 90
        1
176
     1
 40
1.0
176
     1
 90
        8
176
     1
 62
   257
176
     1
 40
1.0
176
     1
 90
        1
176
     1
 90
        6
176
     1
 90
        2
176
     1
 62
     7
176
     1
 90
        3
176
     1
 90
        0
176
     1
 90
        0
176
     1
290
     0
176
     1
 90
       13
176
     1
 40
0.0
176
     1
 90
        0
176
     1
290
     0
176
     1
290
     1
176
     1
290
     1
176
     1
290
     0
176
     1
290
     0
176
     1
290
     0
176
     1
290
     0
176
     1
290
     0
176
     1
290
     0
176
     1
 90
       50
176
     1
 40
0.0
176
     1
 40
1.0
176
     1
 90
        0
176
     1
 62
    18
420
        0
176
     1
 90
       50
176
     1
 90
        3
176
     1
 62
     5
420
      255
176
     1
290
     0
176
     1
 90
       50
176
     1
 90
       50
176
     1
 90
       50
176
     1
290
     0
176
     1
 90
       50
176
     1
 62
   256
176
     0
 40
1.0
176
     0
 90
        2
176
     1
  1
strokes_ogs.tif
176
     1
290
     0
176
     1
 40
1.0
176
     1
 40
1.0
176
     1
  0
VISUALSTYLE
  5
3E
102
{ACAD_REACTORS
330
29
102
}
330
29
100
AcDbVisualStyle
  2
Shaded
 70
    27
177
     3
291
     0
 70
    58
 90
        2
176
     1
 90
        2
176
     1
 90
        1
176
     1
 90
        2
176
     1
 40
0.6
176
     1
 40
30.0
176
     1
 62
     7
420
 16777215
176
     1
 90
        0
176
     1
 90
        4
176
     1
 62
     7
176
     1
 62
   257
176
     1
 90
        1
176
     1
 90
        1
176
     1
 40
1.0
176
     1
 90
        8
176
     1
 62
   257
176
     1
 40
1.0
176
     1
 90
        1
176
     1
 90
        6
176
     1
 90
        2
176
     1
 62
     8
420
  7895160
176
     1
 90
        3
176
     1
 90
        0
176
     1
 90
        0
176
     1
290
     0
176
     1
 90
        5
176
     1
 40
0.0
176
     1
 90
        0
176
     1
290
     0
176
     1
290
     1
176
     1
290
     1
176
     1
290
     0
176
     1
290
     0
176
     1
290
     0
176
     1
290
     0
176
     1
290
     0
176
     1
290
     0
176
     1
 90
       50
176
     1
 40
0.0
176
     1
 40
1.0
176
     1
 90
        0
176
     1
 62
    18
420
        0
176
     1
 90
       50
176
     1
 90
        3
176
     1
 62
     5
420
      255
176
     1
290
     0
176
     1
 90
       50
176
     1
 90
       50
176
     1
 90
       50
176
     1
290
     0
176
     1
 90
       50
176
     1
 62
   256
176
     0
 40
1.0
176
     0
 90
        2
176
     1
  1
strokes_ogs.tif
176
     1
290
     0
176
     1
 40
1.0
176
     1
 40
1.0
176
     1
  0
VISUALSTYLE
  5
3D
102
{ACAD_REACTORS
330
29
102
}
330
29
100
AcDbVisualStyle
  2
Shaded with edges
 70
    26
177
     3
291
     0
 70
    58
 90
        2
176
     1
 90
        2
176
     1
 90
        1
176
     1
 90
        2
176
     1
 40
0.6
176
     1
 40
30.0
176
     1
 62
     7
420
 16777215
176
     1
 90
        1
176
     1
 90
       10
176
     1
 62
     7
176
     1
 62
   257
176
     1
 90
        2
176
     1
 90
        1
176
     1
 40
1.0
176
     1
 90
        8
176
     1
 62
   257
176
     1
 40
1.0
176
     1
 90
        1
176
     1
 90
        6
176
     1
 90
        2
176
     1
 62
     7
176
     1
 90
        3
176
     1
 90
        0
176
     1
 90
        0
176
     1
290
     0
176
     1
 90
        5
176
     1
 40
0.0
176
     1
 90
        0
176
     1
290
     0
176
     1
290
     1
176
     1
290
     1
176
     1
290
     0
176
     1
290
     0
176
     1
290
     0
176
     1
290
     0
176
     1
290
     0
176
     1
290
     0
176
     1
 90
       50
176
     1
 40
0.0
176
     1
 40
1.0
176
     1
 90
        0
176
     1
 62
    18
420
        0
176
     1
 90
       50
176
     1
 90
        3
176
     1
 62
     5
420
      255
176
     1
290
     0
176
     1
 90
       50
176
     1
 90
       50
176
     1
 90
       50
176
     1
290
     0
176
     1
 90
       50
176
     1
 62
   256
176
     0
 40
1.0
176
     0
 90
        2
176
     1
  1
strokes_ogs.tif
176
     1
290
     0
176
     1
 40
1.0
176
     1
 40
1.0
176
     1
  0
VISUALSTYLE
  5
3A
102
{ACAD_REACTORS
330
29
102
}
330
29
100
AcDbVisualStyle
  2
Shades of Gray
 70
    23
177
     3
291
     0
 70
    58
 90
        2
176
     1
 90
        2
176
     1
 90
        3
176
     1
 90
        0
176
     1
 40
0.6
176
     1
 40
30.0
176
     1
 62
     7
420
 16777215
176
     1
 90
        2
176
     1
 90
        2
176
     1
 62
     7
176
     1
 62
     7
176
     1
 90
        1
176
     1
 90
        1
176
     1
 40
40.0
176
     1
 90
        8
176
     1
 62
     7
176
     1
 40
1.0
176
     1
 90
        1
176
     1
 90
        6
176
     1
 90
        2
176
     1
 62
     7
176
     1
 90
        3
176
     1
 90
        0
176
     1
 90
        0
176
     1
290
     0
176
     1
 90
        1
176
     1
 40
0.0
176
     1
 90
        0
176
     1
290
     0
176
     1
290
     1
176
     1
290
     1
176
     1
290
     0
176
     1
290
     0
176
     1
290
     0
176
     1
290
     0
176
     1
290
     0
176
     1
290
     0
176
     1
 90
       50
176
     1
 40
0.0
176
     1
 40
1.0
176
     1
 90
        0
176
     1
 62
    18
420
        0
176
     1
 90
       50
176
     1
 90
        3
176
     1
 62
     5
420
      255
176
     1
290
     0
176
     1
 90
       50
176
     1
 90
       50
176
     1
 90
       50
176
     1
290
     0
176
     1
 90
       50
176
     1
 62
   256
176
     0
 40
1.0
176
     0
 90
        2
176
     1
  1
strokes_ogs.tif
176
     1
290
     0
176
     1
 40
1.0
176
     1
 40
1.0
176
     1
  0
VISUALSTYLE
  5
3B
102
{ACAD_REACTORS
330
29
102
}
330
29
100
AcDbVisualStyle
  2
Sketchy
 70
    24
177
     3
291
     0
 70
    58
 90
        1
176
     1
 90
        2
176
     1
 90
        2
176
     1
 90
        0
176
     1
 40
0.6
176
     1
 40
30.0
176
     1
 62
     7
420
 16777215
176
     1
 90
        2
176
     1
 90
        2
176
     1
 62
     7
176
     1
 62
     7
176
     1
 90
        1
176
     1
 90
        1
176
     1
 40
40.0
176
     1
 90
       11
176
     1
 62
     7
176
     1
 40
1.0
176
     1
 90
        1
176
     1
 90
        6
176
     1
 90
        2
176
     1
 62
     7
176
     1
 90
        6
176
     1
 90
        0
176
     1
 90
        0
176
     1
290
     0
176
     1
 90
        1
176
     1
 40
0.0
176
     1
 90
        0
176
     1
290
     0
176
     1
290
     1
176
     1
290
     1
176
     1
290
     0
176
     1
290
     0
176
     1
290
     0
176
     1
290
     0
176
     1
290
     0
176
     1
290
     0
176
     1
 90
       50
176
     1
 40
0.0
176
     1
 40
1.0
176
     1
 90
        0
176
     1
 62
    18
420
        0
176
     1
 90
       50
176
     1
 90
        3
176
     1
 62
     5
420
      255
176
     1
290
     0
176
     1
 90
       50
176
     1
 90
       50
176
     1
 90
       50
176
     1
290
     0
176
     1
 90
       50
176
     1
 62
   256
176
     0
 40
1.0
176
     0
 90
        2
176
     1
  1
strokes_ogs.tif
176
     1
290
     0
176
     1
 40
1.0
176
     1
 40
1.0
176
     1
  0
VISUALSTYLE
  5
36
102
{ACAD_REACTORS
330
29
102
}
330
29
100
AcDbVisualStyle
  2
Thicken
 70
    13
177
     3
291
     1
 70
    58
 90
        2
176
     1
 90
        2
176
     1
 90
        0
176
     1
 90
        0
176
     1
 40
0.6
176
     1
 40
30.0
176
     1
 62
     7
420
 16777215
176
     1
 90
        1
176
     1
 90
        4
176
     1
 62
     7
176
     1
 62
   257
176
     1
 90
        1
176
     1
 90
        1
176
     1
 40
1.0
176
     1
 90
       12
176
     1
 62
     7
176
     1
 40
1.0
176
     1
 90
        1
176
     1
 90
        6
176
     1
 90
        2
176
     1
 62
     7
176
     1
 90
        5
176
     1
 90
        0
176
     1
 90
        0
176
     1
290
     0
176
     1
 90
        1
176
     1
 40
0.0
176
     1
 90
        0
176
     1
290
     0
176
     1
290
     1
176
     1
290
     1
176
     1
290
     0
176
     1
290
     0
176
     1
290
     0
176
     1
290
     0
176
     1
290
     0
176
     1
290
     0
176
     1
 90
       50
176
     1
 40
0.0
176
     1
 40
1.0
176
     1
 90
        0
176
     1
 62
    18
420
        0
176
     1
 90
       50
176
     1
 90
        3
176
     1
 62
     5
420
      255
176
     1
290
     0
176
     1
 90
       50
176
     1
 90
       50
176
     1
 90
       50
176
     1
290
     0
176
     1
 90
       50
176
     1
 62
   256
176
     0
 40
1.0
176
     0
 90
        2
176
     1
  1
strokes_ogs.tif
176
     1
290
     0
176
     1
 40
1.0
176
     1
 40
1.0
176
     1
  0
VISUALSTYLE
  5
30
102
{ACAD_REACTORS
330
29
102
}
330
29
100
AcDbVisualStyle
  2
Wireframe
 70
     5
177
     3
291
     0
 70
    58
 90
        0
176
     1
 90
        2
176
     1
 90
        0
176
     1
 90
        0
176
     1
 40
0.6
176
     1
 40
30.0
176
     1
 62
     7
420
 16777215
176
     1
 90
        1
176
     1
 90
        4
176
     1
 62
     7
176
     1
 62
   257
176
     1
 90
        1
176
     1
 90
        1
176
     1
 40
1.0
176
     1
 90
        0
176
     1
 62
   257
176
     1
 40
1.0
176
     1
 90
        1
176
     1
 90
        6
176
     1
 90
        2
176
     1
 62
     7
176
     1
 90
        3
176
     1
 90
        0
176
     1
 90
        0
176
     1
290
     0
176
     1
 90
        1
176
     1
 40
0.0
176
     1
 90
        0
176
     1
290
     0
176
     1
290
     1
176
     1
290
     1
176
     1
290
     0
176
     1
290
     0
176
     1
290
     0
176
     1
290
     0
176
     1
290
     0
176
     1
290
     0
176
     1
 90
       50
176
     1
 40
0.0
176
     1
 40
1.0
176
     1
 90
        0
176
     1
 62
    18
420
        0
176
     1
 90
       50
176
     1
 90
        3
176
     1
 62
     5
420
      255
176
     1
290
     0
176
     1
 90
       50
176
     1
 90
       50
176
     1
 90
       50
176
     1
290
     0
176
     1
 90
       50
176
     1
 62
   256
176
     0
 40
1.0
176
     0
 90
        2
176
     1
  1
strokes_ogs.tif
176
     1
290
     0
176
     1
 40
1.0
176
     1
 40
1.0
176
     1
  0
VISUALSTYLE
  5
3C
102
{ACAD_REACTORS
330
29
102
}
330
29
100
AcDbVisualStyle
  2
X-Ray
 70
    25
177
     3
291
     0
 70
    58
 90
        2
176
     1
 90
        2
176
     1
 90
        1
176
     1
 90
        1
176
     1
 40
0.5
176
     1
 40
30.0
176
     1
 62
     7
420
 16777215
176
     1
 90
        1
176
     1
 90
        0
176
     1
 62
     7
176
     1
 62
   257
176
     1
 90
        1
176
     1
 90
        1
176
     1
 40
1.0
176
     1
 90
        8
176
     1
 62
     7
176
     1
 40
1.0
176
     1
 90
        1
176
     1
 90
        6
176
     1
 90
        2
176
     1
 62
     7
176
     1
 90
        3
176
     1
 90
        0
176
     1
 90
        0
176
     1
290
     0
176
     1
 90
       13
176
     1
 40
0.0
176
     1
 90
        0
176
     1
290
     0
176
     1
290
     1
176
     1
290
     1
176
     1
290
     0
176
     1
290
     0
176
     1
290
     0
176
     1
290
     0
176
     1
290
     0
176
     1
290
     0
176
     1
 90
       50
176
     1
 40
0.0
176
     1
 40
1.0
176
     1
 90
        0
176
     1
 62
    18
420
        0
176
     1
 90
       50
176
     1
 90
        3
176
     1
 62
     5
420
      255
176
     1
290
     0
176
     1
 90
       50
176
     1
 90
       50
176
     1
 90
       50
176
     1
290
     0
176
     1
 90
       50
176
     1
 62
   256
176
     0
 40
1.0
176
     0
 90
        2
176
     1
  1
strokes_ogs.tif
176
     1
290
     0
176
     1
 40
1.0
176
     1
 40
1.0
176
     1
  0
DICTIONARYVAR
  5
DE
102
{ACAD_REACTORS
330
D9
102
}
330
D9
100
DictionaryVariables
280
     0
  1
1:1
  0
DICTIONARYVAR
  5
DB
102
{ACAD_REACTORS
330
D9
102
}
330
D9
100
DictionaryVariables
280
     0
  1
STANDARD
  0
DICTIONARYVAR
  5
DA
102
{ACAD_REACTORS
330
D9
102
}
330
D9
100
DictionaryVariables
280
     0
  1
STANDARD
  0
DICTIONARYVAR
  5
DC
102
{ACAD_REACTORS
330
D9
102
}
330
D9
100
DictionaryVariables
280
     0
  1
Imperial24
  0
DICTIONARYVAR
  5
DD
102
{ACAD_REACTORS
330
D9
102
}
330
D9
100
DictionaryVariables
280
     0
  1
Imperial24
  0
XRECORD
  5
D1
102
{ACAD_REACTORS
330
CF
102
}
330
CF
100
AcDbXrecord
280
     1
  1
BUILDING_ID
  1
Faucet_Hands_Free-American_Standard-Beale-4931
  1
FLOOR_ID
  1
39
  0
XRECORD
  5
D0
102
{ACAD_REACTORS
330
CF
102
}
330
CF
100
AcDbXrecord
280
     1
  1
-2001160
  1
Plumbing Fixtures
  0
DICTIONARY
  5
D6
330
6B
100
AcDbDictionary
280
     1
281
     1
  3
ACAD_XREC_ROUNDTRIP
360
208
  0
DICTIONARY
  5
1A
330
19
100
AcDbDictionary
280
     1
281
     1
  3
BUMPTILE
360
1C
  3
DIFFUSETILE
360
1B
  3
OPACITYTILE
360
1F
  3
REFLECTIONTILE
360
1E
  3
REFRACTIONTILE
360
20
  3
SPECULARTILE
360
1D
  0
DICTIONARY
  5
12
330
11
100
AcDbDictionary
280
     1
281
     1
  3
BUMPTILE
360
14
  3
DIFFUSETILE
360
13
  3
OPACITYTILE
360
17
  3
REFLECTIONTILE
360
16
  3
REFRACTIONTILE
360
18
  3
SPECULARTILE
360
15
  0
DICTIONARY
  5
22
330
21
100
AcDbDictionary
280
     1
281
     1
  3
BUMPTILE
360
24
  3
DIFFUSETILE
360
23
  3
OPACITYTILE
360
27
  3
REFLECTIONTILE
360
26
  3
REFRACTIONTILE
360
28
  3
SPECULARTILE
360
25
  0
DICTIONARY
  5
D4
330
69
100
AcDbDictionary
280
     1
281
     1
  3
ACAD_XREC_ROUNDTRIP
360
207
  0
DICTIONARY
  5
205
330
65
100
AcDbDictionary
280
     1
281
     1
  3
ACAD_ROUNDTRIP_2008_TABLESTYLE_CELLSTYLEMAP
360
206
  0
XRECORD
  5
208
102
{ACAD_REACTORS
330
D6
102
}
330
D6
100
AcDbXrecord
280
     1
102
DISPLAYNAME
  1
Imperial24
102
FLAGS
 90
        0
  0
XRECORD
  5
1C
102
{ACAD_REACTORS
330
1A
102
}
330
1A
100
AcDbXrecord
280
     1
270
     1
271
     1
  0
XRECORD
  5
1B
102
{ACAD_REACTORS
330
1A
102
}
330
1A
100
AcDbXrecord
280
     1
270
     1
271
     1
  0
XRECORD
  5
1F
102
{ACAD_REACTORS
330
1A
102
}
330
1A
100
AcDbXrecord
280
     1
270
     1
271
     1
  0
XRECORD
  5
1E
102
{ACAD_REACTORS
330
1A
102
}
330
1A
100
AcDbXrecord
280
     1
270
     1
271
     1
  0
XRECORD
  5
20
102
{ACAD_REACTORS
330
1A
102
}
330
1A
100
AcDbXrecord
280
     1
270
     1
271
     1
  0
XRECORD
  5
1D
102
{ACAD_REACTORS
330
1A
102
}
330
1A
100
AcDbXrecord
280
     1
270
     1
271
     1
  0
XRECORD
  5
14
102
{ACAD_REACTORS
330
12
102
}
330
12
100
AcDbXrecord
280
     1
270
     1
271
     1
  0
XRECORD
  5
13
102
{ACAD_REACTORS
330
12
102
}
330
12
100
AcDbXrecord
280
     1
270
     1
271
     1
  0
XRECORD
  5
17
102
{ACAD_REACTORS
330
12
102
}
330
12
100
AcDbXrecord
280
     1
270
     1
271
     1
  0
XRECORD
  5
16
102
{ACAD_REACTORS
330
12
102
}
330
12
100
AcDbXrecord
280
     1
270
     1
271
     1
  0
XRECORD
  5
18
102
{ACAD_REACTORS
330
12
102
}
330
12
100
AcDbXrecord
280
     1
270
     1
271
     1
  0
XRECORD
  5
15
102
{ACAD_REACTORS
330
12
102
}
330
12
100
AcDbXrecord
280
     1
270
     1
271
     1
  0
XRECORD
  5
24
102
{ACAD_REACTORS
330
22
102
}
330
22
100
AcDbXrecord
280
     1
270
     1
271
     1
  0
XRECORD
  5
23
102
{ACAD_REACTORS
330
22
102
}
330
22
100
AcDbXrecord
280
     1
270
     1
271
     1
  0
XRECORD
  5
27
102
{ACAD_REACTORS
330
22
102
}
330
22
100
AcDbXrecord
280
     1
270
     1
271
     1
  0
XRECORD
  5
26
102
{ACAD_REACTORS
330
22
102
}
330
22
100
AcDbXrecord
280
     1
270
     1
271
     1
  0
XRECORD
  5
28
102
{ACAD_REACTORS
330
22
102
}
330
22
100
AcDbXrecord
280
     1
270
     1
271
     1
  0
XRECORD
  5
25
102
{ACAD_REACTORS
330
22
102
}
330
22
100
AcDbXrecord
280
     1
270
     1
271
     1
  0
XRECORD
  5
207
102
{ACAD_REACTORS
330
D4
102
}
330
D4
100
AcDbXrecord
280
     1
102
DISPLAYNAME
  1
Imperial24
102
FLAGS
 90
        0
  0
CELLSTYLEMAP
  5
206
102
{ACAD_REACTORS
330
205
102
}
330
205
100
AcDbCellStyleMap
 90
        3
300
CELLSTYLE
  1
TABLEFORMAT_BEGIN
 90
        5
170
     1
 91
        0
 92
    32768
 62
   257
 93
        1
300
CONTENTFORMAT
  1
CONTENTFORMAT_BEGIN
 90
        0
 91
        0
 92
      512
 93
        0
300

 40
0.0
140
1.0
 94
        5
 62
     0
340
55
144
0.25
309
CONTENTFORMAT_END
171
     0
 94
        0
309
TABLEFORMAT_END
  1
CELLSTYLE_BEGIN
 90
        1
 91
        1
300
_TITLE
309
CELLSTYLE_END
300
CELLSTYLE
  1
TABLEFORMAT_BEGIN
 90
        5
170
     1
 91
        0
 92
        0
 62
   257
 93
        1
300
CONTENTFORMAT
  1
CONTENTFORMAT_BEGIN
 90
        0
 91
        0
 92
      512
 93
        0
300

 40
0.0
140
1.0
 94
        5
 62
     0
340
55
144
0.18
309
CONTENTFORMAT_END
171
     0
 94
        0
309
TABLEFORMAT_END
  1
CELLSTYLE_BEGIN
 90
        2
 91
        1
300
_HEADER
309
CELLSTYLE_END
300
CELLSTYLE
  1
TABLEFORMAT_BEGIN
 90
        5
170
     1
 91
        0
 92
        0
 62
   257
 93
        1
300
CONTENTFORMAT
  1
CONTENTFORMAT_BEGIN
 90
        0
 91
        0
 92
      512
 93
        0
300

 40
0.0
140
1.0
 94
        2
 62
     0
340
55
144
0.18
309
CONTENTFORMAT_END
171
     0
 94
        0
309
TABLEFORMAT_END
  1
CELLSTYLE_BEGIN
 90
        3
 91
        2
300
_DATA
309
CELLSTYLE_END
  0
ENDSEC
  0
EOF
